  0
SECTION
  2
HEADER
  9
$ACADVER
  1
AC1015
  9
$ACADMAINTVER
 70
     6
  9
$DWGCODEPAGE
  3
ANSI_1252
  9
$INSBASE
 10
0.0
 20
0.0
 30
0.0
  9
$EXTMIN
 10
0.0
 20
0.0
 30
0.0
  9
$EXTMAX
 10
11.0
 20
8.5
 30
0.0
  9
$LIMMIN
 10
0.0
 20
0.0
  9
$LIMMAX
 10
11.0
 20
8.5
  9
$ORTHOMODE
 70
     0
  9
$REGENMODE
 70
     1
  9
$FILLMODE
 70
     1
  9
$QTEXTMODE
 70
     0
  9
$MIRRTEXT
 70
     1
  9
$LTSCALE
 40
1.0
  9
$ATTMODE
 70
     1
  9
$TEXTSIZE
 40
0.1388888889
  9
$TRACEWID
 40
0.05
  9
$TEXTSTYLE
  7
Standard
  9
$CLAYER
  8
0
  9
$CELTYPE
  6
ByLayer
  9
$CECOLOR
 62
   256
  9
$CELTSCALE
 40
1.0
  9
$DISPSILH
 70
     0
  9
$DIMSCALE
 40
1.0
  9
$DIMASZ
 40
0.1181102362
  9
$DIMEXO
 40
0.0787401575
  9
$DIMDLI
 40
0.38
  9
$DIMRND
 40
0.0
  9
$DIMDLE
 40
0.0
  9
$DIMEXE
 40
0.1181102362
  9
$DIMTP
 40
0.0
  9
$DIMTM
 40
0.0
  9
$DIMTXT
 40
0.1388888889
  9
$DIMCEN
 40
0.09
  9
$DIMTSZ
 40
0.0
  9
$DIMTOL
 70
     0
  9
$DIMLIM
 70
     0
  9
$DIMTIH
 70
     1
  9
$DIMTOH
 70
     1
  9
$DIMSE1
 70
     0
  9
$DIMSE2
 70
     0
  9
$DIMTAD
 70
     0
  9
$DIMZIN
 70
     1
  9
$DIMBLK
  1

  9
$DIMASO
 70
     1
  9
$DIMSHO
 70
     1
  9
$DIMPOST
  1

  9
$DIMAPOST
  1

  9
$DIMALT
 70
     0
  9
$DIMALTD
 70
     2
  9
$DIMALTF
 40
25.4
  9
$DIMLFAC
 40
12.0
  9
$DIMTOFL
 70
     0
  9
$DIMTVP
 40
0.0
  9
$DIMTIX
 70
     0
  9
$DIMSOXD
 70
     0
  9
$DIMSAH
 70
     0
  9
$DIMBLK1
  1

  9
$DIMBLK2
  1

  9
$DIMSTYLE
  2
Standard
  9
$DIMCLRD
 70
     0
  9
$DIMCLRE
 70
     0
  9
$DIMCLRT
 70
     0
  9
$DIMTFAC
 40
1.0
  9
$DIMGAP
 40
0.157480315
  9
$DIMJUST
 70
     0
  9
$DIMSD1
 70
     0
  9
$DIMSD2
 70
     0
  9
$DIMTOLJ
 70
     1
  9
$DIMTZIN
 70
     1
  9
$DIMALTZ
 70
     0
  9
$DIMALTTZ
 70
     0
  9
$DIMUPT
 70
     0
  9
$DIMDEC
 70
     2
  9
$DIMTDEC
 70
     2
  9
$DIMALTU
 70
     2
  9
$DIMALTTD
 70
     2
  9
$DIMTXSTY
  7
Standard
  9
$DIMAUNIT
 70
     0
  9
$DIMADEC
 70
     1
  9
$DIMALTRND
 40
0.0
  9
$DIMAZIN
 70
     0
  9
$DIMDSEP
 70
    46
  9
$DIMATFIT
 70
     3
  9
$DIMFRAC
 70
     0
  9
$DIMLDRBLK
  1

  9
$DIMLUNIT
 70
     2
  9
$DIMLWD
 70
    -2
  9
$DIMLWE
 70
    -2
  9
$DIMTMOVE
 70
     0
  9
$LUNITS
 70
     2
  9
$LUPREC
 70
     4
  9
$SKETCHINC
 40
0.1
  9
$FILLETRAD
 40
0.5
  9
$AUNITS
 70
     0
  9
$AUPREC
 70
     2
  9
$MENU
  1
.
  9
$ELEVATION
 40
0.0
  9
$PELEVATION
 40
0.0
  9
$THICKNESS
 40
0.0
  9
$LIMCHECK
 70
     0
  9
$CHAMFERA
 40
0.0
  9
$CHAMFERB
 40
0.0
  9
$CHAMFERC
 40
0.0
  9
$CHAMFERD
 40
0.0
  9
$SKPOLY
 70
     0
  9
$TDCREATE
 40
2458920.548371285
  9
$TDUCREATE
 40
2458920.756704618
  9
$TDUPDATE
 40
2458920.548373148
  9
$TDUUPDATE
 40
2458920.756706481
  9
$TDINDWG
 40
0.0000000116
  9
$TDUSRTIMER
 40
0.0000000116
  9
$USRTIMER
 70
     1
  9
$ANGBASE
 50
0.0
  9
$ANGDIR
 70
     0
  9
$PDMODE
 70
     0
  9
$PDSIZE
 40
-1.0
  9
$PLINEWID
 40
0.0
  9
$SPLFRAME
 70
     0
  9
$SPLINETYPE
 70
     6
  9
$SPLINESEGS
 70
     8
  9
$HANDSEED
  5
193
  9
$SURFTAB1
 70
     6
  9
$SURFTAB2
 70
     6
  9
$SURFTYPE
 70
     6
  9
$SURFU
 70
     6
  9
$SURFV
 70
     6
  9
$UCSBASE
  2

  9
$UCSNAME
  2

  9
$UCSORG
 10
0.0
 20
0.0
 30
0.0
  9
$UCSXDIR
 10
1.0
 20
0.0
 30
0.0
  9
$UCSYDIR
 10
0.0
 20
1.0
 30
0.0
  9
$UCSORTHOREF
  2

  9
$UCSORTHOVIEW
 70
     0
  9
$UCSORGTOP
 10
0.0
 20
0.0
 30
0.0
  9
$UCSORGBOTTOM
 10
0.0
 20
0.0
 30
0.0
  9
$UCSORGLEFT
 10
0.0
 20
0.0
 30
0.0
  9
$UCSORGRIGHT
 10
0.0
 20
0.0
 30
0.0
  9
$UCSORGFRONT
 10
0.0
 20
0.0
 30
0.0
  9
$UCSORGBACK
 10
0.0
 20
0.0
 30
0.0
  9
$PUCSBASE
  2

  9
$PUCSNAME
  2

  9
$PUCSORG
 10
0.0
 20
0.0
 30
0.0
  9
$PUCSXDIR
 10
1.0
 20
0.0
 30
0.0
  9
$PUCSYDIR
 10
0.0
 20
1.0
 30
0.0
  9
$PUCSORTHOREF
  2

  9
$PUCSORTHOVIEW
 70
     0
  9
$PUCSORGTOP
 10
0.0
 20
0.0
 30
0.0
  9
$PUCSORGBOTTOM
 10
0.0
 20
0.0
 30
0.0
  9
$PUCSORGLEFT
 10
0.0
 20
0.0
 30
0.0
  9
$PUCSORGRIGHT
 10
0.0
 20
0.0
 30
0.0
  9
$PUCSORGFRONT
 10
0.0
 20
0.0
 30
0.0
  9
$PUCSORGBACK
 10
0.0
 20
0.0
 30
0.0
  9
$USERI1
 70
     0
  9
$USERI2
 70
     0
  9
$USERI3
 70
     0
  9
$USERI4
 70
     0
  9
$USERI5
 70
     0
  9
$USERR1
 40
0.0
  9
$USERR2
 40
0.0
  9
$USERR3
 40
0.0
  9
$USERR4
 40
0.0
  9
$USERR5
 40
0.0
  9
$WORLDVIEW
 70
     1
  9
$SHADEDGE
 70
     3
  9
$SHADEDIF
 70
    70
  9
$TILEMODE
 70
     1
  9
$MAXACTVP
 70
    64
  9
$PINSBASE
 10
0.0
 20
0.0
 30
0.0
  9
$PLIMCHECK
 70
     0
  9
$PEXTMIN
 10
1.0000000000E+20
 20
1.0000000000E+20
 30
1.0000000000E+20
  9
$PEXTMAX
 10
-1.0000000000E+20
 20
-1.0000000000E+20
 30
-1.0000000000E+20
  9
$PLIMMIN
 10
0.0
 20
0.0
  9
$PLIMMAX
 10
12.0
 20
9.0
  9
$UNITMODE
 70
     0
  9
$VISRETAIN
 70
     1
  9
$PLINEGEN
 70
     0
  9
$PSLTSCALE
 70
     1
  9
$TREEDEPTH
 70
  3020
  9
$CMLSTYLE
  2
Standard
  9
$CMLJUST
 70
     0
  9
$CMLSCALE
 40
1.0
  9
$PROXYGRAPHICS
 70
     1
  9
$MEASUREMENT
 70
     0
  9
$CELWEIGHT
370
    -1
  9
$ENDCAPS
280
     0
  9
$JOINSTYLE
280
     0
  9
$LWDISPLAY
290
     1
  9
$INSUNITS
 70
     1
  9
$HYPERLINKBASE
  1

  9
$STYLESHEET
  1

  9
$XEDIT
290
     1
  9
$CEPSNTYPE
380
     0
  9
$PSTYLEMODE
290
     1
  9
$FINGERPRINTGUID
  2
{f2bd25dd-d79a-4d3b-8260-c11c8c2af84e}
  9
$VERSIONGUID
  2
{FAEB1C32-E019-11D5-929B-00C0DF256EC4}
  9
$EXTNAMES
290
     1
  9
$PSVPSCALE
 40
0.0
  9
$OLESTARTUP
290
     0
  0
ENDSEC
  0
SECTION
  2
CLASSES
  0
CLASS
  1
ACDBDICTIONARYWDFLT
  2
AcDbDictionaryWithDefault
  3
ObjectDBX Classes
 90
        0
280
     0
281
     0
  0
CLASS
  1
VISUALSTYLE
  2
AcDbVisualStyle
  3
ObjectDBX Classes
 90
     4095
280
     0
281
     0
  0
CLASS
  1
MATERIAL
  2
AcDbMaterial
  3
ObjectDBX Classes
 90
     1153
280
     0
281
     0
  0
CLASS
  1
SCALE
  2
AcDbScale
  3
ObjectDBX Classes
 90
     1153
280
     0
281
     0
  0
CLASS
  1
TABLESTYLE
  2
AcDbTableStyle
  3
ObjectDBX Classes
 90
     4095
280
     0
281
     0
  0
CLASS
  1
MLEADERSTYLE
  2
AcDbMLeaderStyle
  3
ACDB_MLEADERSTYLE_CLASS
 90
     4095
280
     0
281
     0
  0
CLASS
  1
SUN
  2
AcDbSun
  3
SCENEOE
 90
     1153
280
     0
281
     0
  0
CLASS
  1
ACDBPLACEHOLDER
  2
AcDbPlaceHolder
  3
ObjectDBX Classes
 90
        0
280
     0
281
     0
  0
CLASS
  1
LAYOUT
  2
AcDbLayout
  3
ObjectDBX Classes
 90
        0
280
     0
281
     0
  0
ENDSEC
  0
SECTION
  2
TABLES
  0
TABLE
  2
VPORT
  5
8
330
0
100
AcDbSymbolTable
 70
     1
  0
VPORT
  5
29
330
8
100
AcDbSymbolTableRecord
100
AcDbViewportTableRecord
  2
*Active
 70
     0
 10
0.0
 20
0.0
 11
1.0
 21
1.0
 12
5.5
 22
4.25
 13
0.0
 23
0.0
 14
0.5
 24
0.5
 15
0.5
 25
0.5
 16
0.0
 26
0.0
 36
1.0
 17
0.0
 27
0.0
 37
0.0
 40
8.5
 41
1.2941176471
 42
50.0
 43
0.0
 44
0.0
 50
0.0
 51
0.0
 71
     0
 72
  2000
 73
     1
 74
     3
 75
     0
 76
     0
 77
     0
 78
     0
281
     0
 65
     1
110
0.0
120
0.0
130
0.0
111
1.0
121
0.0
131
0.0
112
0.0
122
1.0
132
0.0
 79
     0
146
0.0
  0
ENDTAB
  0
TABLE
  2
LTYPE
  5
5
330
0
100
AcDbSymbolTable
 70
     6
  0
LTYPE
  5
14
330
5
100
AcDbSymbolTableRecord
100
AcDbLinetypeTableRecord
  2
ByBlock
 70
     0
  3

 72
    65
 73
     0
 40
0.0
  0
LTYPE
  5
15
330
5
100
AcDbSymbolTableRecord
100
AcDbLinetypeTableRecord
  2
ByLayer
 70
     0
  3

 72
    65
 73
     0
 40
0.0
  0
LTYPE
  5
16
330
5
100
AcDbSymbolTableRecord
100
AcDbLinetypeTableRecord
  2
Continuous
 70
     0
  3
Solid line
 72
    65
 73
     0
 40
0.0
  0
LTYPE
  5
6E
330
5
100
AcDbSymbolTableRecord
100
AcDbLinetypeTableRecord
  2
HIDDEN
 70
     0
  3
Hidden __ __ __ __ __ __ __ __ __ __ __ __ __ __
 72
    65
 73
     2
 40
0.075
 49
0.05
 74
     0
 49
-0.025
 74
     0
  0
LTYPE
  5
6F
330
5
100
AcDbSymbolTableRecord
100
AcDbLinetypeTableRecord
  2
PHANTOM
 70
     0
  3
Phantom ______  __  __  ______  __  __  ______
 72
    65
 73
     6
 40
0.5
 49
0.25
 74
     0
 49
-0.05
 74
     0
 49
0.05
 74
     0
 49
-0.05
 74
     0
 49
0.05
 74
     0
 49
-0.05
 74
     0
  0
LTYPE
  5
70
330
5
100
AcDbSymbolTableRecord
100
AcDbLinetypeTableRecord
  2
CENTER
 70
     0
  3
Center ____ _ ____ _ ____ _ ____ _ ____ _ ____
 72
    65
 73
     4
 40
0.4
 49
0.25
 74
     0
 49
-0.05
 74
     0
 49
0.05
 74
     0
 49
-0.05
 74
     0
  0
LTYPE
  5
71
330
5
100
AcDbSymbolTableRecord
100
AcDbLinetypeTableRecord
  2
CENTERX2
 70
     0
  3
Center (2x) ________  __  ________  __  _____
 72
    65
 73
     4
 40
0.8
 49
0.5
 74
     0
 49
-0.1
 74
     0
 49
0.1
 74
     0
 49
-0.1
 74
     0
  0
LTYPE
  5
72
330
5
100
AcDbSymbolTableRecord
100
AcDbLinetypeTableRecord
  2
DOT2
 70
     0
  3
Dot (.5x) ........................................
 72
    65
 73
     2
 40
0.025
 49
0.0
 74
     0
 49
-0.025
 74
     0
  0
ENDTAB
  0
TABLE
  2
LAYER
  5
2
330
0
100
AcDbSymbolTable
 70
     6
  0
LAYER
  5
10
330
2
100
AcDbSymbolTableRecord
100
AcDbLayerTableRecord
  2
0
 70
     0
 62
     7
  6
Continuous
370
    -3
390
F
  0
LAYER
  5
73
330
2
100
AcDbSymbolTableRecord
100
AcDbLayerTableRecord
  2
FORMAT
 70
     0
 62
     7
  6
Continuous
370
    -3
390
F
  0
LAYER
  5
74
330
2
100
AcDbSymbolTableRecord
100
AcDbLayerTableRecord
  2
BORDER
 70
     0
 62
     7
  6
Continuous
370
    -3
390
F
  0
LAYER
  5
75
330
2
100
AcDbSymbolTableRecord
100
AcDbLayerTableRecord
  2
IMPERIAL_TOLERENCES
 70
     0
 62
     7
  6
Continuous
370
    -3
390
F
  0
LAYER
  5
76
330
2
100
AcDbSymbolTableRecord
100
AcDbLayerTableRecord
  2
LAYER_1
 70
     0
 62
     7
  6
Continuous
370
    -3
390
F
  0
LAYER
  5
77
330
2
100
AcDbSymbolTableRecord
100
AcDbLayerTableRecord
  2
PROTOTYPE_REVISIONS
 70
     0
 62
     7
  6
Continuous
370
    -3
390
F
  0
ENDTAB
  0
TABLE
  2
STYLE
  5
3
330
0
100
AcDbSymbolTable
 70
     1
  0
STYLE
  5
11
330
3
100
AcDbSymbolTableRecord
100
AcDbTextStyleTableRecord
  2
Standard
 70
     0
 40
0.0
 41
1.0
 50
0.0
 71
     0
 42
0.1388888889
  3
txt
  4

  0
ENDTAB
  0
TABLE
  2
VIEW
  5
6
330
0
100
AcDbSymbolTable
 70
     0
  0
ENDTAB
  0
TABLE
  2
UCS
  5
7
330
0
100
AcDbSymbolTable
 70
     0
  0
ENDTAB
  0
TABLE
  2
APPID
  5
9
330
0
100
AcDbSymbolTable
 70
     1
  0
APPID
  5
12
330
9
100
AcDbSymbolTableRecord
100
AcDbRegAppTableRecord
  2
ACAD
 70
     0
  0
ENDTAB
  0
TABLE
  2
DIMSTYLE
  5
A
330
0
100
AcDbSymbolTable
 70
     1
100
AcDbDimStyleTable
  0
DIMSTYLE
105
27
330
A
100
AcDbSymbolTableRecord
100
AcDbDimStyleTableRecord
  2
Standard
 70
     0
178
     0
340
11
  0
ENDTAB
  0
TABLE
  2
BLOCK_RECORD
  5
1
330
0
100
AcDbSymbolTable
 70
     1
  0
BLOCK_RECORD
  5
1F
330
1
100
AcDbSymbolTableRecord
100
AcDbBlockTableRecord
  2
*Model_Space
340
22
  0
BLOCK_RECORD
  5
1B
330
1
100
AcDbSymbolTableRecord
100
AcDbBlockTableRecord
  2
*Paper_Space
340
1E
  0
BLOCK_RECORD
  5
23
330
1
100
AcDbSymbolTableRecord
100
AcDbBlockTableRecord
  2
*Paper_Space0
340
26
  0
ENDTAB
  0
ENDSEC
  0
SECTION
  2
BLOCKS
  0
BLOCK
  5
20
330
1F
100
AcDbEntity
  8
0
100
AcDbBlockBegin
  2
*Model_Space
 70
     0
 10
0.0
 20
0.0
 30
0.0
  3
*Model_Space
  1

  0
ENDBLK
  5
21
330
1F
100
AcDbEntity
  8
0
100
AcDbBlockEnd
  0
BLOCK
  5
1C
330
1B
100
AcDbEntity
 67
     1
  8
0
100
AcDbBlockBegin
  2
*Paper_Space
 70
     0
 10
0.0
 20
0.0
 30
0.0
  3
*Paper_Space
  1

  0
ENDBLK
  5
1D
330
1B
100
AcDbEntity
 67
     1
  8
0
100
AcDbBlockEnd
  0
BLOCK
  5
24
330
23
100
AcDbEntity
  8
0
100
AcDbBlockBegin
  2
*Paper_Space0
 70
     0
 10
0.0
 20
0.0
 30
0.0
  3
*Paper_Space0
  1

  0
ENDBLK
  5
25
330
23
100
AcDbEntity
  8
0
100
AcDbBlockEnd
  0
ENDSEC
  0
SECTION
  2
ENTITIES
  0
ARC
  5
78
330
1F
100
AcDbEntity
  8
0
  6
Continuous
 62
     7
370
    25
100
AcDbCircle
 10
6.4205494551
 20
3.0480331541
 30
0.0
 40
0.0250000000000004
100
AcDbArc
 50
270.0
 51
0.0
  0
ARC
  5
79
330
1F
100
AcDbEntity
  8
0
  6
Continuous
 62
     7
370
    25
100
AcDbCircle
 10
6.4205494551
 20
3.7105331541
 30
0.0
 40
0.0250000000000004
100
AcDbArc
 50
0.0
 51
90.0
  0
ARC
  5
7A
330
1F
100
AcDbEntity
  8
0
  6
Continuous
 62
     7
370
    25
100
AcDbCircle
 10
5.4705494551
 20
3.7105331541
 30
0.0
 40
0.0249999999999999
100
AcDbArc
 50
90.0
 51
180.0
  0
ARC
  5
7B
330
1F
100
AcDbEntity
  8
0
  6
Continuous
 62
     7
370
    25
100
AcDbCircle
 10
5.4705494551
 20
3.0480331541
 30
0.0
 40
0.0250000000000004
100
AcDbArc
 50
180.0
 51
270.0
  0
LINE
  5
7C
330
1F
100
AcDbEntity
  8
0
  6
Continuous
 62
     7
370
    25
100
AcDbLine
 10
6.4205493629
 20
3.735533142
 30
0.0
 11
5.4705492974
 21
3.735533142
 31
0.0
  0
LINE
  5
7D
330
1F
100
AcDbEntity
  8
0
  6
Continuous
 62
     7
370
    25
100
AcDbLine
 10
5.4705492974
 20
3.0230331662
 30
0.0
 11
6.4205493629
 21
3.0230331662
 31
0.0
  0
ARC
  5
7E
330
1F
100
AcDbEntity
  8
0
  6
Continuous
 62
     7
370
    25
100
AcDbCircle
 10
6.857654881
 20
2.3042831541
 30
0.0
 40
0.0500000000000016
100
AcDbArc
 50
180.0
 51
270.0
  0
ARC
  5
7F
330
1F
100
AcDbEntity
  8
0
  6
Continuous
 62
     7
370
    25
100
AcDbCircle
 10
7.038904881
 20
2.3042831541
 30
0.0
 40
0.0499999999999998
100
AcDbArc
 50
270.0
 51
0.0
  0
LINE
  5
80
330
1F
100
AcDbEntity
  8
0
  6
Continuous
 62
     7
370
    25
100
AcDbLine
 10
6.807655131
 20
3.2830331568
 30
0.0
 11
6.807655131
 21
2.3042831726
 31
0.0
  0
LINE
  5
81
330
1F
100
AcDbEntity
  8
0
  6
Continuous
 62
     7
370
    25
100
AcDbLine
 10
6.807655131
 20
4.4542831356
 30
0.0
 11
6.807655131
 21
3.4755331514
 31
0.0
  0
LINE
  5
82
330
1F
100
AcDbEntity
  8
0
  6
Continuous
 62
     7
370
    25
100
AcDbLine
 10
7.088905162
 20
4.2855331317
 30
0.0
 11
7.088905162
 21
4.4542831356
 31
0.0
  0
LINE
  5
83
330
1F
100
AcDbEntity
  8
0
  6
Continuous
 62
     7
370
    25
100
AcDbLine
 10
7.088905162
 20
2.3042831726
 30
0.0
 11
7.088905162
 21
2.4730331765
 31
0.0
  0
ARC
  5
84
330
1F
100
AcDbEntity
  8
0
  6
Continuous
 62
     7
370
    25
100
AcDbCircle
 10
7.038904881
 20
4.4542831541
 30
0.0
 40
0.0500000000000016
100
AcDbArc
 50
0.0
 51
90.0
  0
ARC
  5
85
330
1F
100
AcDbEntity
  8
0
  6
Continuous
 62
     7
370
    25
100
AcDbCircle
 10
6.857654881
 20
4.4542831541
 30
0.0
 40
0.0499999999999998
100
AcDbArc
 50
90.0
 51
180.0
  0
SPLINE
  5
86
330
1F
100
AcDbEntity
  8
0
  6
Continuous
 62
     7
370
    25
100
AcDbSpline
210
0.0
220
0.0
230
1.0
 70
     8
 71
     3
 72
    11
 73
     7
 74
     0
 42
0.000000001
 43
0.00000001
 40
0.0
 40
0.0
 40
0.0
 40
0.0
 40
0.2500015392979952
 40
0.5000014401315903
 40
0.7499997827940615
 40
1.0
 40
1.0
 40
1.0
 40
1.0
 10
7.088905161995589
 20
2.47303317653227
 30
0.0
 10
7.084219451151935
 20
2.478941505074229
 30
0.0
 10
7.074848060173914
 20
2.490758123436045
 30
0.0
 10
7.06517085460175
 20
2.511308112367598
 30
0.0
 10
7.058836581596798
 20
2.533121480339404
 30
0.0
 10
7.058048836850413
 20
2.5481824177863
 30
0.0
 10
7.057654963000554
 20
2.555712914742212
 30
0.0
  0
SPLINE
  5
87
330
1F
100
AcDbEntity
  8
0
  6
Continuous
 62
     7
370
    25
100
AcDbSpline
210
0.0
220
0.0
230
1.0
 70
     8
 71
     3
 72
    11
 73
     7
 74
     0
 42
0.000000001
 43
0.00000001
 40
0.0
 40
0.0
 40
0.0
 40
0.0
 40
0.2500002172059384
 40
0.4999985598684097
 40
0.7499984607020048
 40
1.0
 40
1.0
 40
1.0
 40
1.0
 10
7.057654963000554
 20
4.202853393501512
 30
0.0
 10
7.058048836850413
 20
4.210383890457424
 30
0.0
 10
7.058836581596796
 20
4.22544482790432
 30
0.0
 10
7.065170854601751
 20
4.247258195876126
 30
0.0
 10
7.074848060173912
 20
4.267808184807678
 30
0.0
 10
7.084219451151935
 20
4.279624803169494
 30
0.0
 10
7.088905161995589
 20
4.285533131711454
 30
0.0
  0
LINE
  5
88
330
1F
100
AcDbEntity
  8
0
  6
Continuous
 62
     7
370
    25
100
AcDbLine
 10
6.4455492874
 20
3.285533153
 30
0.0
 11
6.8093540981
 21
3.285533153
 31
0.0
  0
LINE
  5
89
330
1F
100
AcDbEntity
  8
0
  6
Continuous
 62
     7
370
    25
100
AcDbLine
 10
6.8093540981
 20
3.4730331553
 30
0.0
 11
6.4455492874
 21
3.4730331553
 31
0.0
  0
LINE
  5
8A
330
1F
100
AcDbEntity
  8
0
  6
Continuous
 62
     7
370
    25
100
AcDbLine
 10
0.5955494571
 20
2.6292831449
 30
0.0
 11
0.6580494518
 21
2.6292831449
 31
0.0
  0
LINE
  5
8B
330
1F
100
AcDbEntity
  8
0
  6
Continuous
 62
     7
370
    25
100
AcDbLine
 10
0.6580494518
 20
4.1292831634
 30
0.0
 11
0.5955494571
 21
4.1292831634
 31
0.0
  0
LINE
  5
8C
330
1F
100
AcDbEntity
  8
0
  6
Continuous
 62
     7
370
    25
100
AcDbLine
 10
0.6580494518
 20
3.1717831462
 30
0.0
 11
5.4455493728
 21
3.1717831462
 31
0.0
  0
LINE
  5
8D
330
1F
100
AcDbEntity
  8
0
  6
Continuous
 62
     7
370
    25
100
AcDbLine
 10
5.4455493728
 20
3.5867831621
 30
0.0
 11
0.6580494518
 21
3.5867831621
 31
0.0
  0
ARC
  5
8E
330
1F
100
AcDbEntity
  8
0
  6
Continuous
 62
     7
370
    25
100
AcDbCircle
 10
6.0580494551
 20
3.3792831541
 30
0.0
 40
0.3000000000000003
100
AcDbArc
 50
355.5896230724
 51
4.4103769276
  0
LINE
  5
8F
330
1F
100
AcDbEntity
  8
0
  6
Continuous
 62
     7
370
    25
100
AcDbLine
 10
6.3571613485
 20
3.3562132719
 30
0.0
 11
6.3571613485
 21
3.4023530364
 31
0.0
  0
LINE
  5
90
330
1F
100
AcDbEntity
  8
0
  6
Continuous
 62
     7
370
    25
100
AcDbLine
 10
5.4705492974
 20
3.6777100733
 30
0.0
 11
6.4205493629
 21
3.6777100733
 31
0.0
  0
LINE
  5
91
330
1F
100
AcDbEntity
  8
0
  6
Continuous
 62
     7
370
    25
100
AcDbLine
 10
6.4205493629
 20
3.6777100733
 30
0.0
 11
6.4205493629
 21
3.0808562349
 31
0.0
  0
LINE
  5
92
330
1F
100
AcDbEntity
  8
0
  6
Continuous
 62
     7
370
    25
100
AcDbLine
 10
5.4705492974
 20
3.0808562349
 30
0.0
 11
6.4205493629
 21
3.0808562349
 31
0.0
  0
LINE
  5
93
330
1F
100
AcDbEntity
  8
0
  6
Continuous
 62
     7
370
    25
100
AcDbLine
 10
5.4705492974
 20
3.0808562349
 30
0.0
 11
5.4705492974
 21
3.6777100733
 31
0.0
  0
SPLINE
  5
94
330
1F
100
AcDbEntity
  8
0
  6
Continuous
 62
     7
370
    25
100
AcDbSpline
210
0.0
220
0.0
230
1.0
 70
     8
 71
     3
 72
    13
 73
     9
 74
     0
 42
0.000000001
 43
0.00000001
 40
0.0
 40
0.0
 40
0.0
 40
0.0
 40
0.2537938287876039
 40
0.5022817992656465
 40
0.6253757852236197
 40
0.7477822906270705
 40
0.8730823982139939
 40
1.0
 40
1.0
 40
1.0
 40
1.0
 10
6.35715958851623
 20
3.402352825535716
 30
0.0
 10
6.355459780905526
 20
3.4166168684391
 30
0.0
 10
6.352095702160241
 20
3.444846747662482
 30
0.0
 10
6.339657016259432
 20
3.477285524542639
 30
0.0
 10
6.324258820633848
 20
3.499221772137774
 30
0.0
 10
6.309190174225458
 20
3.512686774227284
 30
0.0
 10
6.290407431870032
 20
3.522513935328298
 30
0.0
 10
6.276015125596414
 20
3.52384847981469
 30
0.0
 10
6.268772822901021
 20
3.524520031333063
 30
0.0
  0
LINE
  5
95
330
1F
100
AcDbEntity
  8
0
  6
Continuous
 62
     7
370
    25
100
AcDbLine
 10
5.622326424
 20
3.5245200313
 30
0.0
 11
6.2687728229
 21
3.5245200313
 31
0.0
  0
SPLINE
  5
96
330
1F
100
AcDbEntity
  8
0
  6
Continuous
 62
     7
370
    25
100
AcDbSpline
210
0.0
220
0.0
230
1.0
 70
     8
 71
     3
 72
    13
 73
     9
 74
     0
 42
0.000000001
 43
0.00000001
 40
0.0
 40
0.0
 40
0.0
 40
0.0
 40
0.1268088306272995
 40
0.2554466028515088
 40
0.3746051668365515
 40
0.4977127389563099
 40
0.7462040311962174
 40
1.0
 40
1.0
 40
1.0
 40
1.0
 10
5.622326424038318
 20
3.524520031333063
 30
0.0
 10
5.615090436357727
 20
3.523849761556305
 30
0.0
 10
5.600514097611135
 20
3.522499554818968
 30
0.0
 10
5.581762346603169
 20
3.512581238356022
 30
0.0
 10
5.566740811917121
 20
3.499080168656972
 30
0.0
 10
5.551442031872273
 20
3.477285157438563
 30
0.0
 10
5.539002938603608
 20
3.444847187528635
 30
0.0
 10
5.535638870065729
 20
3.416616992951341
 30
0.0
 10
5.53393907176322
 20
3.402352825535716
 30
0.0
  0
ARC
  5
97
330
1F
100
AcDbEntity
  8
0
  6
Continuous
 62
     7
370
    25
100
AcDbCircle
 10
5.8330494551
 20
3.3792831541
 30
0.0
 40
0.2999999999999998
100
AcDbArc
 50
175.5896230724
 51
184.4103769276
  0
SPLINE
  5
98
330
1F
100
AcDbEntity
  8
0
  6
Continuous
 62
     7
370
    25
100
AcDbSpline
210
0.0
220
0.0
230
1.0
 70
     8
 71
     3
 72
    13
 73
     9
 74
     0
 42
0.000000001
 43
0.00000001
 40
0.0
 40
0.0
 40
0.0
 40
0.0
 40
0.2537934218257556
 40
0.5022822203228973
 40
0.6253760088979936
 40
0.747782318020952
 40
0.8730792125379772
 40
1.0
 40
1.0
 40
1.0
 40
1.0
 10
5.53393907176322
 20
3.356213482708008
 30
0.0
 10
5.53563881512242
 20
3.341949415471535
 30
0.0
 10
5.539002774922066
 20
3.313719419158667
 30
0.0
 10
5.551442287050536
 20
3.281280881313891
 30
0.0
 10
5.566840399618425
 20
3.259344512634482
 30
0.0
 10
5.581908993921958
 20
3.245879711488362
 30
0.0
 10
5.600691516202073
 20
3.236052169796257
 30
0.0
 10
5.615083899840518
 20
3.234717771694557
 30
0.0
 10
5.622326424038318
 20
3.234046276910661
 30
0.0
  0
LINE
  5
99
330
1F
100
AcDbEntity
  8
0
  6
Continuous
 62
     7
370
    25
100
AcDbLine
 10
6.2687728229
 20
3.2340462769
 30
0.0
 11
5.622326424
 21
3.2340462769
 31
0.0
  0
SPLINE
  5
9A
330
1F
100
AcDbEntity
  8
0
  6
Continuous
 62
     7
370
    25
100
AcDbSpline
210
0.0
220
0.0
230
1.0
 70
     8
 71
     3
 72
    13
 73
     9
 74
     0
 42
0.000000001
 43
0.00000001
 40
0.0
 40
0.0
 40
0.0
 40
0.0
 40
0.1268057843531357
 40
0.255443904612681
 40
0.3746027909866312
 40
0.4977126064838675
 40
0.7462033445396954
 40
1.0
 40
1.0
 40
1.0
 40
1.0
 10
6.268772822901021
 20
3.234046276910661
 30
0.0
 10
6.276008603990845
 20
3.234716574261233
 30
0.0
 10
6.290584722769144
 20
3.236066854718511
 30
0.0
 10
6.309336356753288
 20
3.245985042579516
 30
0.0
 10
6.324357774268488
 20
3.259486300471967
 30
0.0
 10
6.339657533063311
 20
3.28128077571579
 30
0.0
 10
6.352095441326935
 20
3.313719319980958
 30
0.0
 10
6.355459693350948
 20
3.341949359041715
 30
0.0
 10
6.35715958851623
 20
3.356213482708008
 30
0.0
  0
LINE
  5
9B
330
1F
100
AcDbEntity
  8
0
  6
Continuous
 62
     7
370
    25
100
AcDbLine
 10
5.5339378984
 20
3.4023530364
 30
0.0
 11
5.5339378984
 21
3.3562132719
 31
0.0
  0
ARC
  5
9C
330
1F
100
AcDbEntity
  8
0
  6
Continuous
 62
     7
370
    25
100
AcDbCircle
 10
6.4206147693
 20
3.6527755547
 30
0.0
 40
0.0249346044684547
100
AcDbArc
 50
0.1507446672
 51
90.1502936568
  0
LINE
  5
9D
330
1F
100
AcDbEntity
  8
0
  6
Continuous
 62
     7
370
    25
100
AcDbLine
 10
6.4455492874
 20
3.105725151
 30
0.0
 11
6.4455492874
 21
3.6528411573
 31
0.0
  0
ARC
  5
9E
330
1F
100
AcDbEntity
  8
0
  6
Continuous
 62
     7
370
    25
100
AcDbCircle
 10
6.4206147693
 20
3.1057907536
 30
0.0
 40
0.0249346044684547
100
AcDbArc
 50
269.8497063432
 51
359.8492553328
  0
ARC
  5
9F
330
1F
100
AcDbEntity
  8
0
  6
Continuous
 62
     7
370
    25
100
AcDbCircle
 10
5.470484467
 20
3.1057913326
 30
0.0
 40
0.0249351819463182
100
AcDbArc
 50
180.1520715635
 51
270.1489667605
  0
LINE
  5
A0
330
1F
100
AcDbEntity
  8
0
  6
Continuous
 62
     7
370
    25
100
AcDbLine
 10
5.4455493728
 20
3.6528411573
 30
0.0
 11
5.4455493728
 21
3.105725151
 31
0.0
  0
ARC
  5
A1
330
1F
100
AcDbEntity
  8
0
  6
Continuous
 62
     7
370
    25
100
AcDbCircle
 10
5.470484467
 20
3.6527749757
 30
0.0
 40
0.0249351819463182
100
AcDbArc
 50
89.8510332395
 51
179.8479284365
  0
LINE
  5
A2
330
1F
100
AcDbEntity
  8
0
  6
Continuous
 62
     7
370
    25
100
AcDbLine
 10
5.622326424
 20
3.2340462769
 30
0.0
 11
5.622326424
 21
3.5245200313
 31
0.0
  0
LINE
  5
A3
330
1F
100
AcDbEntity
  8
0
  6
Continuous
 62
     7
370
    25
100
AcDbLine
 10
6.2687728229
 20
3.5245200313
 30
0.0
 11
6.2687728229
 21
3.2340462769
 31
0.0
  0
LINE
  5
A4
330
1F
100
AcDbEntity
  8
0
  6
Continuous
 62
     7
370
    25
100
AcDbLine
 10
5.4705492974
 20
3.0249012013
 30
0.0
 11
5.4705492974
 21
3.0808562349
 31
0.0
  0
ARC
  5
A5
330
1F
100
AcDbEntity
  8
0
  6
Continuous
 62
     7
370
    25
100
AcDbCircle
 10
5.4704844226
 20
3.0498362545
 30
0.0
 40
0.0249351375738167
100
AcDbArc
 50
180.1520538612
 51
270.1490689374
  0
LINE
  5
A6
330
1F
100
AcDbEntity
  8
0
  6
Continuous
 62
     7
370
    25
100
AcDbLine
 10
5.4455493728
 20
3.105725151
 30
0.0
 11
5.4455493728
 21
3.0497700807
 31
0.0
  0
LINE
  5
A7
330
1F
100
AcDbEntity
  8
0
  6
Continuous
 62
     7
370
    25
100
AcDbLine
 10
6.4205493629
 20
3.7336651069
 30
0.0
 11
6.4205493629
 21
3.6777100733
 31
0.0
  0
ARC
  5
A8
330
1F
100
AcDbEntity
  8
0
  6
Continuous
 62
     7
370
    25
100
AcDbCircle
 10
6.4206148136
 20
3.7087306327
 30
0.0
 40
0.0249345600996886
100
AcDbArc
 50
0.1507269684
 51
90.1503958303
  0
LINE
  5
A9
330
1F
100
AcDbEntity
  8
0
  6
Continuous
 62
     7
370
    25
100
AcDbLine
 10
6.4455492874
 20
3.6528411573
 30
0.0
 11
6.4455492874
 21
3.7087962276
 31
0.0
  0
ARC
  5
AA
330
1F
100
AcDbEntity
  8
0
  6
Continuous
 62
     7
370
    25
100
AcDbCircle
 10
6.4206148136
 20
3.0498356755
 30
0.0
 40
0.0249345600996882
100
AcDbArc
 50
269.8496041697
 51
359.8492730316
  0
LINE
  5
AB
330
1F
100
AcDbEntity
  8
0
  6
Continuous
 62
     7
370
    25
100
AcDbLine
 10
6.4205493629
 20
3.0808562349
 30
0.0
 11
6.4205493629
 21
3.0249012013
 31
0.0
  0
LINE
  5
AC
330
1F
100
AcDbEntity
  8
0
  6
Continuous
 62
     7
370
    25
100
AcDbLine
 10
6.4455492874
 20
3.0497700807
 30
0.0
 11
6.4455492874
 21
3.105725151
 31
0.0
  0
LINE
  5
AD
330
1F
100
AcDbEntity
  8
0
  6
Continuous
 62
     7
370
    25
100
AcDbLine
 10
5.4705492974
 20
3.6777100733
 30
0.0
 11
5.4705492974
 21
3.7336651069
 31
0.0
  0
ARC
  5
AE
330
1F
100
AcDbEntity
  8
0
  6
Continuous
 62
     7
370
    25
100
AcDbCircle
 10
5.4704844226
 20
3.7087300538
 30
0.0
 40
0.0249351375738167
100
AcDbArc
 50
89.8509310626
 51
179.8479461388
  0
LINE
  5
AF
330
1F
100
AcDbEntity
  8
0
  6
Continuous
 62
     7
370
    25
100
AcDbLine
 10
5.4455493728
 20
3.7087962276
 30
0.0
 11
5.4455493728
 21
3.6528411573
 31
0.0
  0
LINE
  5
B0
330
1F
100
AcDbEntity
  8
0
  6
Continuous
 62
     7
370
    25
100
AcDbLine
 10
5.4705492974
 20
3.0249012013
 30
0.0
 11
6.4205493629
 21
3.0249012013
 31
0.0
  0
LINE
  5
B1
330
1F
100
AcDbEntity
  8
0
  6
Continuous
 62
     7
370
    25
100
AcDbLine
 10
5.4705492974
 20
3.7336651069
 30
0.0
 11
6.4205493629
 21
3.7336651069
 31
0.0
  0
LINE
  5
B2
330
1F
100
AcDbEntity
  8
0
  6
Continuous
 62
     7
370
    25
100
AcDbLine
 10
6.4455492874
 20
3.7087962276
 30
0.0
 11
6.4455492874
 21
3.7105331442
 31
0.0
  0
LINE
  5
B3
330
1F
100
AcDbEntity
  8
0
  6
Continuous
 62
     7
370
    25
100
AcDbLine
 10
6.4455492874
 20
3.0480331641
 30
0.0
 11
6.4455492874
 21
3.0497700807
 31
0.0
  0
LINE
  5
B4
330
1F
100
AcDbEntity
  8
0
  6
Continuous
 62
     7
370
    25
100
AcDbLine
 10
5.4455493728
 20
3.0497700807
 30
0.0
 11
5.4455493728
 21
3.0480331641
 31
0.0
  0
LINE
  5
B5
330
1F
100
AcDbEntity
  8
0
  6
Continuous
 62
     7
370
    25
100
AcDbLine
 10
5.4455493728
 20
3.7105331442
 30
0.0
 11
5.4455493728
 21
3.7087962276
 31
0.0
  0
LINE
  5
B6
330
1F
100
AcDbEntity
  8
0
  6
Continuous
 62
     7
370
    25
100
AcDbLine
 10
6.9482798532
 20
2.2542831769
 30
0.0
 11
7.0389047263
 21
2.2542831769
 31
0.0
  0
LINE
  5
B7
330
1F
100
AcDbEntity
  8
0
  6
Continuous
 62
     7
370
    25
100
AcDbLine
 10
6.8576549801
 20
2.2542831769
 30
0.0
 11
6.9482798532
 21
2.2542831769
 31
0.0
  0
SPLINE
  5
B8
330
1F
100
AcDbEntity
  8
0
  6
Continuous
 62
     7
370
    25
100
AcDbSpline
210
0.0
220
0.0
230
1.0
 70
     8
 71
     3
 72
    11
 73
     7
 74
     0
 42
0.000000001
 43
0.00000001
 40
0.0
 40
0.0
 40
0.0
 40
0.0
 40
0.1709736958010812
 40
0.3996515658292575
 40
0.6823713847904854
 40
1.0
 40
1.0
 40
1.0
 40
1.0
 10
7.070570867128262
 20
4.267199276839043
 30
0.0
 10
7.069126000955593
 20
4.265214237907724
 30
0.0
 10
7.065748621613022
 20
4.260574202998164
 30
0.0
 10
7.061638208893858
 20
4.248490209201273
 30
0.0
 10
7.058315759873234
 20
4.232715894021017
 30
0.0
 10
7.057883604877546
 20
4.220658407921707
 30
0.0
 10
7.057654963000554
 20
4.214279108177347
 30
0.0
  0
LINE
  5
B9
330
1F
100
AcDbEntity
  8
0
  6
Continuous
 62
     7
370
    25
100
AcDbLine
 10
7.057654963
 20
2.5442872001
 30
0.0
 11
7.057654963
 21
4.2142791082
 31
0.0
  0
SPLINE
  5
BA
330
1F
100
AcDbEntity
  8
0
  6
Continuous
 62
     7
370
    25
100
AcDbSpline
210
0.0
220
0.0
230
1.0
 70
     8
 71
     3
 72
    11
 73
     7
 74
     0
 42
0.000000001
 43
0.00000001
 40
0.0
 40
0.0
 40
0.0
 40
0.0
 40
0.1709737389028675
 40
0.3996516328109146
 40
0.6823713995422336
 40
1.0
 40
1.0
 40
1.0
 40
1.0
 10
7.070570867128262
 20
2.49136703140468
 30
0.0
 10
7.069126000978724
 20
2.493352070288021
 30
0.0
 10
7.065748621975599
 20
2.49799210469337
 30
0.0
 10
7.061638209508773
 20
2.510076096504834
 30
0.0
 10
7.058315759584344
 20
2.52585041605013
 30
0.0
 10
7.057883604787325
 20
2.537907900682609
 30
0.0
 10
7.057654963000554
 20
2.544287200066376
 30
0.0
  0
SPLINE
  5
BB
330
1F
100
AcDbEntity
  8
0
  6
Continuous
 62
     7
370
    25
100
AcDbSpline
210
0.0
220
0.0
230
1.0
 70
     8
 71
     3
 72
     9
 73
     5
 74
     0
 42
0.000000001
 43
0.00000001
 40
0.0
 40
0.0
 40
0.0
 40
0.0
 40
0.4798727437588274
 40
0.9999999999999999
 40
0.9999999999999999
 40
0.9999999999999999
 40
0.9999999999999999
 10
7.088905161995589
 20
2.47303317653227
 30
0.0
 10
7.088039083226898
 20
2.473912861494047
 30
0.0
 10
7.086234273972872
 20
2.475746024500739
 30
0.0
 10
7.075930263713007
 20
2.486022142397978
 30
0.0
 10
7.070570867128262
 20
2.49136703140468
 30
0.0
  0
SPLINE
  5
BC
330
1F
100
AcDbEntity
  8
0
  6
Continuous
 62
     7
370
    25
100
AcDbSpline
210
0.0
220
0.0
230
1.0
 70
     8
 71
     3
 72
     9
 73
     5
 74
     0
 42
0.000000001
 43
0.00000001
 40
0.0
 40
0.0
 40
0.0
 40
0.0
 40
0.5146072214066797
 40
1.0
 40
1.0
 40
1.0
 40
1.0
 10
7.070570867128262
 20
4.267199276839043
 30
0.0
 10
7.075877530193862
 20
4.27250590510967
 30
0.0
 10
7.086189595094731
 20
4.282817902395911
 30
0.0
 10
7.08801777612536
 20
4.284645856156474
 30
0.0
 10
7.088905161995589
 20
4.285533131711454
 30
0.0
  0
SPLINE
  5
BD
330
1F
100
AcDbEntity
  8
0
  6
Continuous
 62
     7
370
    25
100
AcDbSpline
210
0.0
220
0.0
230
1.0
 70
     8
 71
     3
 72
    24
 73
    20
 74
     0
 42
0.000000001
 43
0.00000001
 40
0.0
 40
0.0
 40
0.0
 40
0.0
 40
0.0616576127029195
 40
0.1246871040646357
 40
0.1868349228100015
 40
0.2503232483072217
 40
0.3145636527174731
 40
0.3760147850989836
 40
0.4396872119528451
 40
0.4999444586888311
 40
0.5601834833093247
 40
0.5914177499342201
 40
0.6239851068311251
 40
0.6854236940439178
 40
0.7496766369503323
 40
0.8131522329319407
 40
0.8753127819863707
 40
0.9383360704928622
 40
1.0
 40
1.0
 40
1.0
 40
1.0
 10
6.807655131019947
 20
3.475533151400346
 30
0.0
 10
6.807916134749797
 20
3.475159661422751
 30
0.0
 10
6.808443949528841
 20
3.474404371335087
 30
0.0
 10
6.81248577744162
 20
3.468371444000895
 30
0.0
 10
6.818301683136887
 20
3.459360561846657
 30
0.0
 10
6.825360420913838
 20
3.447357051947503
 30
0.0
 10
6.832783065817137
 20
3.433114505354993
 30
0.0
 10
6.839557374290361
 20
3.416618642222243
 30
0.0
 10
6.844531558937264
 20
3.398573258761875
 30
0.0
 10
6.84635055981648
 20
3.379286954042906
 30
0.0
 10
6.844850288184107
 20
3.363388076142754
 30
0.0
 10
6.842079785433136
 20
3.351089578470062
 30
0.0
 10
6.838447274615065
 20
3.339251484540445
 30
0.0
 10
6.832782354854857
 20
3.325448636492792
 30
0.0
 10
6.825361760284027
 20
3.311212120091868
 30
0.0
 10
6.818301877960094
 20
3.299206239434818
 30
0.0
 10
6.812486185903402
 20
3.290195784956158
 30
0.0
 10
6.808444549472132
 20
3.284161443945232
 30
0.0
 10
6.80791635100402
 20
3.283406509072425
 30
0.0
 10
6.807655131019949
 20
3.283033156843377
 30
0.0
  0
LINE
  5
BE
330
1F
100
AcDbEntity
  8
0
  6
Continuous
 62
     7
370
    25
100
AcDbLine
 10
6.9482798532
 20
4.5042831314
 30
0.0
 11
6.8576549801
 21
4.5042831314
 31
0.0
  0
LINE
  5
BF
330
1F
100
AcDbEntity
  8
0
  6
Continuous
 62
     7
370
    25
100
AcDbLine
 10
7.0389047263
 20
4.5042831314
 30
0.0
 11
6.9482798532
 21
4.5042831314
 31
0.0
  0
LINE
  5
C0
330
1F
100
AcDbEntity
  8
0
  6
Continuous
 62
     7
370
    25
100
AcDbLine
 10
6.8351548133
 20
3.4273386611
 30
0.0
 11
6.8351548133
 21
3.3314892058
 31
0.0
  0
LINE
  5
C1
330
1F
100
AcDbEntity
  8
0
  6
Continuous
 62
     7
370
    25
100
AcDbLine
 10
0.5955494571
 20
4.1292831634
 30
0.0
 11
0.5955494571
 21
2.6292831449
 31
0.0
  0
LINE
  5
C2
330
1F
100
AcDbEntity
  8
0
  6
Continuous
 62
     7
370
    25
100
AcDbLine
 10
0.6580494518
 20
2.6292831449
 30
0.0
 11
0.6580494518
 21
4.1292831634
 31
0.0
  0
LINE
  5
C3
330
1F
100
AcDbEntity
  8
0
  6
Continuous
 62
     8
370
    25
100
AcDbLine
 10
6.4205493629
 20
3.0249012013
 30
0.0
 11
6.4205493629
 21
3.0230331662
 31
0.0
  0
LINE
  5
C4
330
1F
100
AcDbEntity
  8
0
  6
Continuous
 62
     8
370
    25
100
AcDbLine
 10
6.4205493629
 20
3.735533142
 30
0.0
 11
6.4205493629
 21
3.7336651069
 31
0.0
  0
LINE
  5
C5
330
1F
100
AcDbEntity
  8
0
  6
Continuous
 62
     8
370
    25
100
AcDbLine
 10
5.4705492974
 20
3.7336651069
 30
0.0
 11
5.4705492974
 21
3.735533142
 31
0.0
  0
LINE
  5
C6
330
1F
100
AcDbEntity
  8
0
  6
Continuous
 62
     8
370
    25
100
AcDbLine
 10
5.4705492974
 20
3.0230331662
 30
0.0
 11
5.4705492974
 21
3.0249012013
 31
0.0
  0
LINE
  5
C7
330
1F
100
AcDbEntity
  8
0
  6
Continuous
 62
     8
370
    25
100
AcDbLine
 10
6.9482798532
 20
2.3042831726
 30
0.0
 11
6.807655131
 21
2.3042831726
 31
0.0
  0
LINE
  5
C8
330
1F
100
AcDbEntity
  8
0
  6
Continuous
 62
     8
370
    25
100
AcDbLine
 10
7.088905162
 20
2.3042831726
 30
0.0
 11
6.9482798532
 21
2.3042831726
 31
0.0
  0
LINE
  5
C9
330
1F
100
AcDbEntity
  8
0
  6
Continuous
 62
     8
370
    25
100
AcDbLine
 10
6.9482798532
 20
4.4542831356
 30
0.0
 11
7.088905162
 21
4.4542831356
 31
0.0
  0
LINE
  5
CA
330
1F
100
AcDbEntity
  8
0
  6
Continuous
 62
     8
370
    25
100
AcDbLine
 10
6.807655131
 20
4.4542831356
 30
0.0
 11
6.9482798532
 21
4.4542831356
 31
0.0
  0
LINE
  5
CB
330
1F
100
AcDbEntity
  8
0
  6
Continuous
 62
     7
370
    25
100
AcDbLine
 10
6.4205493629
 20
6.6265377469
 30
0.0
 11
5.4705492974
 21
6.6265377469
 31
0.0
  0
ARC
  5
CC
330
1F
100
AcDbEntity
  8
0
  6
Continuous
 62
     7
370
    25
100
AcDbCircle
 10
6.4205494551
 20
6.6015377693
 30
0.0
 40
0.0250000000000004
100
AcDbArc
 50
0.0
 51
90.0
  0
ARC
  5
CD
330
1F
100
AcDbEntity
  8
0
  6
Continuous
 62
     7
370
    25
100
AcDbCircle
 10
5.4705494551
 20
6.6015377693
 30
0.0
 40
0.0250000000000004
100
AcDbArc
 50
90.0
 51
180.0
  0
ARC
  5
CE
330
1F
100
AcDbEntity
  8
0
  6
Continuous
 62
     7
370
    25
100
AcDbCircle
 10
6.4205494551
 20
5.4452877693
 30
0.0
 40
0.0250000000000004
100
AcDbArc
 50
270.0
 51
0.0
  0
ARC
  5
CF
330
1F
100
AcDbEntity
  8
0
  6
Continuous
 62
     7
370
    25
100
AcDbCircle
 10
5.4705494551
 20
5.4452877693
 30
0.0
 40
0.0250000000000004
100
AcDbArc
 50
180.0
 51
270.0
  0
LINE
  5
D0
330
1F
100
AcDbEntity
  8
0
  6
Continuous
 62
     7
370
    25
100
AcDbLine
 10
6.3580495516
 20
5.4202877766
 30
0.0
 11
6.4205493629
 21
5.4202877766
 31
0.0
  0
LINE
  5
D1
330
1F
100
AcDbEntity
  8
0
  6
Continuous
 62
     7
370
    25
100
AcDbLine
 10
5.4705492974
 20
5.4202877766
 30
0.0
 11
5.5330496954
 21
5.4202877766
 31
0.0
  0
LINE
  5
D2
330
1F
100
AcDbEntity
  8
0
  6
Continuous
 62
     7
370
    25
100
AcDbLine
 10
6.4455492874
 20
5.6265377682
 30
0.0
 11
6.8351548133
 21
5.6265377682
 31
0.0
  0
LINE
  5
D3
330
1F
100
AcDbEntity
  8
0
  6
Continuous
 62
     7
370
    25
100
AcDbLine
 10
6.8351548133
 20
5.8140377705
 30
0.0
 11
6.4455492874
 21
5.8140377705
 31
0.0
  0
LINE
  5
D4
330
1F
100
AcDbEntity
  8
0
  6
Continuous
 62
     7
370
    25
100
AcDbLine
 10
6.8351548133
 20
5.6265377682
 30
0.0
 11
6.8396286817
 21
5.6310113981
 31
0.0
  0
LINE
  5
D5
330
1F
100
AcDbEntity
  8
0
  6
Continuous
 62
     7
370
    25
100
AcDbLine
 10
6.8396286817
 20
5.8095641405
 30
0.0
 11
6.8351548133
 21
5.8140377705
 31
0.0
  0
ARC
  5
D6
330
1F
100
AcDbEntity
  8
0
  6
Continuous
 62
     7
370
    25
100
AcDbCircle
 10
1.9840494551
 20
6.3479127693
 30
0.0
 40
0.0125000000000002
100
AcDbArc
 50
0.0
 51
90.0
  0
ARC
  5
D7
330
1F
100
AcDbEntity
  8
0
  6
Continuous
 62
     7
370
    25
100
AcDbCircle
 10
1.9840494551
 20
6.1926627693
 30
0.0
 40
0.0125
100
AcDbArc
 50
270.0
 51
0.0
  0
LINE
  5
D8
330
1F
100
AcDbEntity
  8
0
  6
Continuous
 62
     7
370
    25
100
AcDbLine
 10
1.9840495204
 20
6.3604127612
 30
0.0
 11
1.698049451
 21
6.3604127612
 31
0.0
  0
LINE
  5
D9
330
1F
100
AcDbEntity
  8
0
  6
Continuous
 62
     7
370
    25
100
AcDbLine
 10
1.698049451
 20
6.1801627568
 30
0.0
 11
1.9840495204
 21
6.1801627568
 31
0.0
  0
ARC
  5
DA
330
1F
100
AcDbEntity
  8
0
  6
Continuous
 62
     7
370
    25
100
AcDbCircle
 10
5.0840494551
 20
6.3461627693
 30
0.0
 40
0.0124999999999993
100
AcDbArc
 50
90.0
 51
180.0
  0
ARC
  5
DB
330
1F
100
AcDbEntity
  8
0
  6
Continuous
 62
     7
370
    25
100
AcDbCircle
 10
5.0840494551
 20
6.1944127693
 30
0.0
 40
0.0125000000000011
100
AcDbArc
 50
180.0
 51
270.0
  0
LINE
  5
DC
330
1F
100
AcDbEntity
  8
0
  6
Continuous
 62
     7
370
    25
100
AcDbLine
 10
5.3705495993
 20
6.3586627548
 30
0.0
 11
5.0840495489
 21
6.3586627548
 31
0.0
  0
LINE
  5
DD
330
1F
100
AcDbEntity
  8
0
  6
Continuous
 62
     7
370
    25
100
AcDbLine
 10
5.0840495489
 20
6.1819127633
 30
0.0
 11
5.3705495993
 21
6.1819127633
 31
0.0
  0
LINE
  5
DE
330
1F
100
AcDbEntity
  8
0
  6
Continuous
 62
     7
370
    25
100
AcDbLine
 10
5.4455493728
 20
6.3377877826
 30
0.0
 11
5.4380495128
 21
6.3377877826
 31
0.0
  0
LINE
  5
DF
330
1F
100
AcDbEntity
  8
0
  6
Continuous
 62
     7
370
    25
100
AcDbLine
 10
5.4380495128
 20
6.2027877721
 30
0.0
 11
5.4455493728
 21
6.2027877721
 31
0.0
  0
LINE
  5
E0
330
1F
100
AcDbEntity
  8
0
  6
Continuous
 62
     7
370
    25
100
AcDbLine
 10
1.5437994062
 20
6.2075606536
 30
0.0
 11
1.5882994655
 21
6.2155377615
 31
0.0
  0
LINE
  5
E1
330
1F
100
AcDbEntity
  8
0
  6
Continuous
 62
     7
370
    25
100
AcDbLine
 10
1.5882994655
 20
6.3250377565
 30
0.0
 11
1.5437994062
 21
6.333014901
 31
0.0
  0
LINE
  5
E2
330
1F
100
AcDbEntity
  8
0
  6
Continuous
 62
     7
370
    25
100
AcDbLine
 10
5.0715495867
 20
6.3302877759
 30
0.0
 11
1.9965494827
 21
6.3302877759
 31
0.0
  0
LINE
  5
E3
330
1F
100
AcDbEntity
  8
0
  6
Continuous
 62
     7
370
    25
100
AcDbLine
 10
1.9965494827
 20
6.2102877788
 30
0.0
 11
5.0715495867
 21
6.2102877788
 31
0.0
  0
LINE
  5
E4
330
1F
100
AcDbEntity
  8
0
  6
Continuous
 62
     7
370
    25
100
AcDbLine
 10
1.6272994416
 20
6.3250377565
 30
0.0
 11
1.5882994655
 21
6.3250377565
 31
0.0
  0
LINE
  5
E5
330
1F
100
AcDbEntity
  8
0
  6
Continuous
 62
     7
370
    25
100
AcDbLine
 10
1.5882994655
 20
6.2155377615
 30
0.0
 11
1.6272994416
 21
6.2155377615
 31
0.0
  0
LINE
  5
E6
330
1F
100
AcDbEntity
  8
0
  6
Continuous
 62
     7
370
    25
100
AcDbLine
 10
1.1305494334
 20
6.3556526762
 30
0.0
 11
1.1305494334
 21
6.4942706549
 31
0.0
  0
LINE
  5
E7
330
1F
100
AcDbEntity
  8
0
  6
Continuous
 62
     7
370
    25
100
AcDbLine
 10
1.1305494334
 20
6.1568107232
 30
0.0
 11
1.1305494334
 21
6.176912771
 31
0.0
  0
LINE
  5
E8
330
1F
100
AcDbEntity
  8
0
  6
Continuous
 62
     7
370
    25
100
AcDbLine
 10
1.1305494334
 20
6.0469905586
 30
0.0
 11
1.1305494334
 21
6.0603935004
 31
0.0
  0
LINE
  5
E9
330
1F
100
AcDbEntity
  8
0
  6
Continuous
 62
     7
370
    25
100
AcDbLine
 10
0.8510494822
 20
6.4942706549
 30
0.0
 11
0.8510494822
 21
6.0469905586
 31
0.0
  0
LINE
  5
EA
330
1F
100
AcDbEntity
  8
0
  6
Continuous
 62
     7
370
    25
100
AcDbLine
 10
1.1512994471
 20
6.3636627837
 30
0.0
 11
1.1305494334
 21
6.3636627837
 31
0.0
  0
LINE
  5
EB
330
1F
100
AcDbEntity
  8
0
  6
Continuous
 62
     7
370
    25
100
AcDbLine
 10
1.1189727272
 20
6.176912771
 30
0.0
 11
1.1512994471
 21
6.176912771
 31
0.0
  0
ARC
  5
EC
330
1F
100
AcDbEntity
  8
0
  6
Continuous
 62
     7
370
    25
100
AcDbCircle
 10
1.5137994551
 20
6.3509127693
 30
0.0
 40
0.0125000000000002
100
AcDbArc
 50
360.0
 51
90.0
  0
ARC
  5
ED
330
1F
100
AcDbEntity
  8
0
  6
Continuous
 62
     7
370
    25
100
AcDbCircle
 10
1.5137994551
 20
6.1896627693
 30
0.0
 40
0.0125000000000002
100
AcDbArc
 50
270.0
 51
0.0
  0
LINE
  5
EE
330
1F
100
AcDbEntity
  8
0
  6
Continuous
 62
     7
370
    25
100
AcDbLine
 10
1.5137995261
 20
6.3634127932
 30
0.0
 11
1.1637994827
 21
6.3634127932
 31
0.0
  0
LINE
  5
EF
330
1F
100
AcDbEntity
  8
0
  6
Continuous
 62
     7
370
    25
100
AcDbLine
 10
1.1637994827
 20
6.1771627615
 30
0.0
 11
1.5137995261
 21
6.1771627615
 31
0.0
  0
ARC
  5
F0
330
1F
100
AcDbEntity
  8
0
  6
Continuous
 62
     7
370
    25
100
AcDbCircle
 10
1.1637994551
 20
6.3509127693
 30
0.0
 40
0.0125000000000002
100
AcDbArc
 50
90.0
 51
180.0
  0
ARC
  5
F1
330
1F
100
AcDbEntity
  8
0
  6
Continuous
 62
     7
370
    25
100
AcDbCircle
 10
1.1637994551
 20
6.1896627693
 30
0.0
 40
0.0125000000000002
100
AcDbArc
 50
180.0
 51
270.0
  0
LINE
  5
F2
330
1F
100
AcDbEntity
  8
0
  6
Continuous
 62
     7
370
    25
100
AcDbLine
 10
0.5955494571
 20
4.97028776
 30
0.0
 11
0.6580494518
 21
4.97028776
 31
0.0
  0
LINE
  5
F3
330
1F
100
AcDbEntity
  8
0
  6
Continuous
 62
     7
370
    25
100
AcDbLine
 10
0.6580494518
 20
6.7202877572
 30
0.0
 11
0.5955494571
 21
6.7202877572
 31
0.0
  0
LINE
  5
F4
330
1F
100
AcDbEntity
  8
0
  6
Continuous
 62
     7
370
    25
100
AcDbLine
 10
0.6580494518
 20
5.5127877614
 30
0.0
 11
5.4455493728
 21
5.5127877614
 31
0.0
  0
LINE
  5
F5
330
1F
100
AcDbEntity
  8
0
  6
Continuous
 62
     7
370
    25
100
AcDbLine
 10
5.4455493728
 20
5.9277877773
 30
0.0
 11
0.6580494518
 21
5.9277877773
 31
0.0
  0
LINE
  5
F6
330
1F
100
AcDbEntity
  8
0
  6
Continuous
 62
     7
370
    25
100
AcDbLine
 10
5.4705492974
 20
6.2338530999
 30
0.0
 11
6.4205493629
 21
6.2338530999
 31
0.0
  0
LINE
  5
F7
330
1F
100
AcDbEntity
  8
0
  6
Continuous
 62
     7
370
    25
100
AcDbLine
 10
6.4455492874
 20
6.2364099104
 30
0.0
 11
6.4455492874
 21
6.601537749
 31
0.0
  0
ARC
  5
F8
330
1F
100
AcDbEntity
  8
0
  6
Continuous
 62
     7
370
    25
100
AcDbCircle
 10
6.4267340279
 20
6.2968810782
 30
0.0
 40
0.0633306886938597
100
AcDbArc
 50
264.3957522161
 51
287.2832324069
  0
LINE
  5
F9
330
1F
100
AcDbEntity
  8
0
  6
Continuous
 62
     7
370
    25
100
AcDbLine
 10
5.4455493728
 20
6.601537749
 30
0.0
 11
5.4455493728
 21
6.2364099104
 31
0.0
  0
ARC
  5
FA
330
1F
100
AcDbEntity
  8
0
  6
Continuous
 62
     7
370
    25
100
AcDbCircle
 10
5.4643650211
 20
6.2968848793
 30
0.0
 40
0.063334433671846
100
AcDbArc
 50
252.7174534069
 51
275.6035619701
  0
LINE
  5
FB
330
1F
100
AcDbEntity
  8
0
  6
Continuous
 62
     7
370
    25
100
AcDbLine
 10
6.4205493629
 20
6.2338530999
 30
0.0
 11
6.4205493629
 21
5.6896059521
 31
0.0
  0
LINE
  5
FC
330
1F
100
AcDbEntity
  8
0
  6
Continuous
 62
     7
370
    25
100
AcDbLine
 10
6.4455492874
 20
5.6921627694
 30
0.0
 11
6.4455492874
 21
6.2364099104
 31
0.0
  0
ARC
  5
FD
330
1F
100
AcDbEntity
  8
0
  6
Continuous
 62
     7
370
    25
100
AcDbCircle
 10
6.4267340431
 20
5.7526336196
 30
0.0
 40
0.0633303808521224
100
AcDbArc
 50
264.395711108
 51
287.2833047013
  0
LINE
  5
FE
330
1F
100
AcDbEntity
  8
0
  6
Continuous
 62
     7
370
    25
100
AcDbLine
 10
5.4705492974
 20
5.6896059521
 30
0.0
 11
5.4705492974
 21
6.2338530999
 31
0.0
  0
ARC
  5
FF
330
1F
100
AcDbEntity
  8
0
  6
Continuous
 62
     7
370
    25
100
AcDbCircle
 10
5.464365006
 20
5.7526374207
 30
0.0
 40
0.0633341258176429
100
AcDbArc
 50
252.7173811171
 51
275.6036030737
  0
LINE
  5
100
330
1F
100
AcDbEntity
  8
0
  6
Continuous
 62
     7
370
    25
100
AcDbLine
 10
5.4455493728
 20
6.2364099104
 30
0.0
 11
5.4455493728
 21
5.6921627694
 31
0.0
  0
LINE
  5
101
330
1F
100
AcDbEntity
  8
0
  6
Continuous
 62
     7
370
    25
100
AcDbLine
 10
5.4705492974
 20
5.6896059521
 30
0.0
 11
6.4205493629
 21
5.6896059521
 31
0.0
  0
LINE
  5
102
330
1F
100
AcDbEntity
  8
0
  6
Continuous
 62
     7
370
    25
100
AcDbLine
 10
6.4455492874
 20
5.4452877745
 30
0.0
 11
6.4455492874
 21
5.6921627694
 31
0.0
  0
LINE
  5
103
330
1F
100
AcDbEntity
  8
0
  6
Continuous
 62
     7
370
    25
100
AcDbLine
 10
5.4455493728
 20
5.6921627694
 30
0.0
 11
5.4455493728
 21
5.4452877745
 31
0.0
  0
SPLINE
  5
104
330
1F
100
AcDbEntity
  8
0
  6
Continuous
 62
     7
370
    25
100
AcDbSpline
210
0.0
220
0.0
230
1.0
 70
     8
 71
     3
 72
    13
 73
     9
 74
     0
 42
0.000000001
 43
0.00000001
 40
0.0
 40
0.0
 40
0.0
 40
0.0
 40
0.2537938287876039
 40
0.5022817992656465
 40
0.6253757852236197
 40
0.7477822906270705
 40
0.8730823982139939
 40
1.0
 40
1.0
 40
1.0
 40
1.0
 10
6.35715958851623
 20
5.421177482997561
 30
0.0
 10
6.355459780905526
 20
5.422877149747871
 30
0.0
 10
6.352095702160241
 20
5.426240949717223
 30
0.0
 10
6.339657016259432
 20
5.436311843168643
 30
0.0
 10
6.324258820633848
 20
5.445129060927772
 30
0.0
 10
6.309190174225458
 20
5.451476088821681
 30
0.0
 10
6.290407431870032
 20
5.456661318185386
 30
0.0
 10
6.276015125596414
 20
5.457410686410966
 30
0.0
 10
6.268772822901021
 20
5.457787773405696
 30
0.0
  0
LINE
  5
105
330
1F
100
AcDbEntity
  8
0
  6
Continuous
 62
     7
370
    25
100
AcDbLine
 10
5.622326424
 20
5.4577877734
 30
0.0
 11
6.2687728229
 21
5.4577877734
 31
0.0
  0
SPLINE
  5
106
330
1F
100
AcDbEntity
  8
0
  6
Continuous
 62
     7
370
    25
100
AcDbSpline
210
0.0
220
0.0
230
1.0
 70
     8
 71
     3
 72
    13
 73
     9
 74
     0
 42
0.000000001
 43
0.00000001
 40
0.0
 40
0.0
 40
0.0
 40
0.0
 40
0.1268088306272995
 40
0.2554466028515088
 40
0.3746051668365515
 40
0.4977127389563099
 40
0.7462040311962174
 40
1.0
 40
1.0
 40
1.0
 40
1.0
 10
5.622326424038318
 20
5.457787773405696
 30
0.0
 10
5.615090436357727
 20
5.457410852486819
 30
0.0
 10
5.600514097611135
 20
5.456651574384543
 30
0.0
 10
5.581762346603169
 20
5.451422736976513
 30
0.0
 10
5.566740811917121
 20
5.445071923039722
 30
0.0
 10
5.551442031872273
 20
5.436311781568471
 30
0.0
 10
5.539002938603608
 20
5.426241057156755
 30
0.0
 10
5.535638870065729
 20
5.422877183055188
 30
0.0
 10
5.53393907176322
 20
5.421177482997561
 30
0.0
  0
LWPOLYLINE
  5
107
330
1F
100
AcDbEntity
  8
0
  6
Continuous
 62
     7
370
    25
100
AcDbPolyline
 90
        3
 70
   128
 43
0.0
 10
5.5330496954
 20
5.4202877766
 10
5.5331482542
 20
5.4203865188
 10
5.5339378984
 20
5.421176108
  0
LWPOLYLINE
  5
108
330
1F
100
AcDbEntity
  8
0
  6
Continuous
 62
     7
370
    25
100
AcDbPolyline
 90
        3
 70
   128
 43
0.0
 10
6.3571613485
 20
5.421176108
 10
6.3579509927
 20
5.4203865188
 10
6.3580495516
 20
5.4202877766
  0
CIRCLE
  5
109
330
1F
100
AcDbEntity
  8
0
  6
Continuous
 62
     7
370
    25
100
AcDbCircle
 10
6.948279881
 20
5.7202877693
 30
0.0
 40
0.140625
  0
CIRCLE
  5
10A
330
1F
100
AcDbEntity
  8
0
  6
Continuous
 62
     7
370
    25
100
AcDbCircle
 10
6.948279881
 20
5.7202877693
 30
0.0
 40
0.0906250000000002
  0
CIRCLE
  5
10B
330
1F
100
AcDbEntity
  8
0
  6
Continuous
 62
     7
370
    25
100
AcDbCircle
 10
6.948279881
 20
5.7202877693
 30
0.0
 40
0.0829156197588814
  0
CIRCLE
  5
10C
330
1F
100
AcDbEntity
  8
0
  6
Continuous
 62
     7
370
    25
100
AcDbCircle
 10
6.948279881
 20
5.7202877693
 30
0.0
 40
0.0690963497990662
  0
LINE
  5
10D
330
1F
100
AcDbEntity
  8
0
  6
Continuous
 62
     7
370
    25
100
AcDbLine
 10
6.8351548133
 20
5.8140377705
 30
0.0
 11
6.8351548133
 21
5.8038229401
 31
0.0
  0
LINE
  5
10E
330
1F
100
AcDbEntity
  8
0
  6
Continuous
 62
     7
370
    25
100
AcDbLine
 10
6.8351548133
 20
5.6367525985
 30
0.0
 11
6.8351548133
 21
5.6265377682
 31
0.0
  0
LINE
  5
10F
330
1F
100
AcDbEntity
  8
0
  6
Continuous
 62
     7
370
    25
100
AcDbLine
 10
1.9965494827
 20
6.270287759
 30
0.0
 11
1.9965494827
 21
6.3479127989
 31
0.0
  0
LINE
  5
110
330
1F
100
AcDbEntity
  8
0
  6
Continuous
 62
     7
370
    25
100
AcDbLine
 10
1.9965494827
 20
6.1926627557
 30
0.0
 11
1.9965494827
 21
6.270287759
 31
0.0
  0
LINE
  5
111
330
1F
100
AcDbEntity
  8
0
  6
Continuous
 62
     7
370
    25
100
AcDbLine
 10
1.698049451
 20
6.270287759
 30
0.0
 11
1.698049451
 21
6.1801627568
 31
0.0
  0
LINE
  5
112
330
1F
100
AcDbEntity
  8
0
  6
Continuous
 62
     7
370
    25
100
AcDbLine
 10
1.698049451
 20
6.3604127612
 30
0.0
 11
1.698049451
 21
6.270287759
 31
0.0
  0
LINE
  5
113
330
1F
100
AcDbEntity
  8
0
  6
Continuous
 62
     7
370
    25
100
AcDbLine
 10
5.0715495867
 20
6.270287759
 30
0.0
 11
5.0715495867
 21
6.1944127622
 31
0.0
  0
LINE
  5
114
330
1F
100
AcDbEntity
  8
0
  6
Continuous
 62
     7
370
    25
100
AcDbLine
 10
5.0715495867
 20
6.3461627925
 30
0.0
 11
5.0715495867
 21
6.270287759
 31
0.0
  0
LINE
  5
115
330
1F
100
AcDbEntity
  8
0
  6
Continuous
 62
     7
370
    25
100
AcDbLine
 10
5.3705495993
 20
6.270287759
 30
0.0
 11
5.3705495993
 21
6.1819127633
 31
0.0
  0
LINE
  5
116
330
1F
100
AcDbEntity
  8
0
  6
Continuous
 62
     7
370
    25
100
AcDbLine
 10
5.3705495993
 20
6.3586627548
 30
0.0
 11
5.3705495993
 21
6.270287759
 31
0.0
  0
LINE
  5
117
330
1F
100
AcDbEntity
  8
0
  6
Continuous
 62
     7
370
    25
100
AcDbLine
 10
1.698049451
 20
6.2727554338
 30
0.0
 11
1.6272994416
 21
6.2727554338
 31
0.0
  0
LINE
  5
118
330
1F
100
AcDbEntity
  8
0
  6
Continuous
 62
     7
370
    25
100
AcDbLine
 10
1.6272994416
 20
6.2678201208
 30
0.0
 11
1.698049451
 21
6.2678201208
 31
0.0
  0
LINE
  5
119
330
1F
100
AcDbEntity
  8
0
  6
Continuous
 62
     7
370
    25
100
AcDbLine
 10
1.6272994416
 20
6.2727554338
 30
0.0
 11
1.6272994416
 21
6.2678201208
 31
0.0
  0
LINE
  5
11A
330
1F
100
AcDbEntity
  8
0
  6
Continuous
 62
     7
370
    25
100
AcDbLine
 10
1.6272994416
 20
6.3365700966
 30
0.0
 11
1.698049451
 21
6.3365700966
 31
0.0
  0
LINE
  5
11B
330
1F
100
AcDbEntity
  8
0
  6
Continuous
 62
     7
370
    25
100
AcDbLine
 10
1.6272994416
 20
6.2727554338
 30
0.0
 11
1.6272994416
 21
6.3365700966
 31
0.0
  0
LINE
  5
11C
330
1F
100
AcDbEntity
  8
0
  6
Continuous
 62
     7
370
    25
100
AcDbLine
 10
1.698049451
 20
6.2040054214
 30
0.0
 11
1.6272994416
 21
6.2040054214
 31
0.0
  0
LINE
  5
11D
330
1F
100
AcDbEntity
  8
0
  6
Continuous
 62
     7
370
    25
100
AcDbLine
 10
1.6272994416
 20
6.2040054214
 30
0.0
 11
1.6272994416
 21
6.2678201208
 31
0.0
  0
LINE
  5
11E
330
1F
100
AcDbEntity
  8
0
  6
Continuous
 62
     7
370
    25
100
AcDbLine
 10
5.3705495993
 20
6.2891203848
 30
0.0
 11
5.4380495128
 21
6.2891203848
 31
0.0
  0
LINE
  5
11F
330
1F
100
AcDbEntity
  8
0
  6
Continuous
 62
     7
370
    25
100
AcDbLine
 10
5.4380495128
 20
6.2938695799
 30
0.0
 11
5.3705495993
 21
6.2938695799
 31
0.0
  0
LINE
  5
120
330
1F
100
AcDbEntity
  8
0
  6
Continuous
 62
     7
370
    25
100
AcDbLine
 10
5.4380495128
 20
6.2938695799
 30
0.0
 11
5.4380495128
 21
6.2891203848
 31
0.0
  0
LINE
  5
121
330
1F
100
AcDbEntity
  8
0
  6
Continuous
 62
     7
370
    25
100
AcDbLine
 10
5.4380495128
 20
6.2176898133
 30
0.0
 11
5.3705495993
 21
6.2176898133
 31
0.0
  0
LINE
  5
122
330
1F
100
AcDbEntity
  8
0
  6
Continuous
 62
     7
370
    25
100
AcDbLine
 10
5.4380495128
 20
6.2891203848
 30
0.0
 11
5.4380495128
 21
6.2176898133
 31
0.0
  0
LINE
  5
123
330
1F
100
AcDbEntity
  8
0
  6
Continuous
 62
     7
370
    25
100
AcDbLine
 10
5.3705495993
 20
6.3452555963
 30
0.0
 11
5.4380495128
 21
6.3452555963
 31
0.0
  0
LINE
  5
124
330
1F
100
AcDbEntity
  8
0
  6
Continuous
 62
     7
370
    25
100
AcDbLine
 10
5.4380495128
 20
6.3452555963
 30
0.0
 11
5.4380495128
 21
6.2938695799
 31
0.0
  0
LINE
  5
125
330
1F
100
AcDbEntity
  8
0
  6
Continuous
 62
     7
370
    25
100
AcDbLine
 10
1.5437994062
 20
6.2722605862
 30
0.0
 11
1.5262994884
 21
6.2722605862
 31
0.0
  0
LINE
  5
126
330
1F
100
AcDbEntity
  8
0
  6
Continuous
 62
     7
370
    25
100
AcDbLine
 10
1.5262994884
 20
6.2683149685
 30
0.0
 11
1.5437994062
 21
6.2683149685
 31
0.0
  0
LINE
  5
127
330
1F
100
AcDbEntity
  8
0
  6
Continuous
 62
     7
370
    25
100
AcDbLine
 10
1.5437994062
 20
6.2722605862
 30
0.0
 11
1.5437994062
 21
6.2683149685
 31
0.0
  0
LINE
  5
128
330
1F
100
AcDbEntity
  8
0
  6
Continuous
 62
     7
370
    25
100
AcDbLine
 10
1.5262994884
 20
6.332064952
 30
0.0
 11
1.5437994062
 21
6.332064952
 31
0.0
  0
LINE
  5
129
330
1F
100
AcDbEntity
  8
0
  6
Continuous
 62
     7
370
    25
100
AcDbLine
 10
1.5437994062
 20
6.332064952
 30
0.0
 11
1.5437994062
 21
6.2722605862
 31
0.0
  0
LINE
  5
12A
330
1F
100
AcDbEntity
  8
0
  6
Continuous
 62
     7
370
    25
100
AcDbLine
 10
1.5437994062
 20
6.208510566
 30
0.0
 11
1.5262994884
 21
6.208510566
 31
0.0
  0
LINE
  5
12B
330
1F
100
AcDbEntity
  8
0
  6
Continuous
 62
     7
370
    25
100
AcDbLine
 10
1.5437994062
 20
6.2683149685
 30
0.0
 11
1.5437994062
 21
6.208510566
 31
0.0
  0
LINE
  5
12C
330
1F
100
AcDbEntity
  8
0
  6
Continuous
 62
     7
370
    25
100
AcDbLine
 10
1.5882994655
 20
6.270287759
 30
0.0
 11
1.5882994655
 21
6.2155377615
 31
0.0
  0
LINE
  5
12D
330
1F
100
AcDbEntity
  8
0
  6
Continuous
 62
     7
370
    25
100
AcDbLine
 10
1.5882994655
 20
6.3250377565
 30
0.0
 11
1.5882994655
 21
6.270287759
 31
0.0
  0
LINE
  5
12E
330
1F
100
AcDbEntity
  8
0
  6
Continuous
 62
     7
370
    25
100
AcDbLine
 10
5.3705495993
 20
6.2141525475
 30
0.0
 11
5.4380495128
 21
6.2141525475
 31
0.0
  0
LINE
  5
12F
330
1F
100
AcDbEntity
  8
0
  6
Continuous
 62
     7
370
    25
100
AcDbLine
 10
5.4380495128
 20
6.2176898133
 30
0.0
 11
5.4380495128
 21
6.2141525475
 31
0.0
  0
LINE
  5
130
330
1F
100
AcDbEntity
  8
0
  6
Continuous
 62
     7
370
    25
100
AcDbLine
 10
5.4380495128
 20
6.194108029
 30
0.0
 11
5.3705495993
 21
6.194108029
 31
0.0
  0
LINE
  5
131
330
1F
100
AcDbEntity
  8
0
  6
Continuous
 62
     7
370
    25
100
AcDbLine
 10
5.4380495128
 20
6.2141525475
 30
0.0
 11
5.4380495128
 21
6.194108029
 31
0.0
  0
LINE
  5
132
330
1F
100
AcDbEntity
  8
0
  6
Continuous
 62
     7
370
    25
100
AcDbLine
 10
1.698049451
 20
6.3390377348
 30
0.0
 11
1.6272994416
 21
6.3390377348
 31
0.0
  0
LINE
  5
133
330
1F
100
AcDbEntity
  8
0
  6
Continuous
 62
     7
370
    25
100
AcDbLine
 10
1.6272994416
 20
6.3390377348
 30
0.0
 11
1.6272994416
 21
6.3365700966
 31
0.0
  0
LINE
  5
134
330
1F
100
AcDbEntity
  8
0
  6
Continuous
 62
     7
370
    25
100
AcDbLine
 10
1.6272994416
 20
6.2015377832
 30
0.0
 11
1.698049451
 21
6.2015377832
 31
0.0
  0
LINE
  5
135
330
1F
100
AcDbEntity
  8
0
  6
Continuous
 62
     7
370
    25
100
AcDbLine
 10
1.6272994416
 20
6.2040054214
 30
0.0
 11
1.6272994416
 21
6.2015377832
 31
0.0
  0
LINE
  5
136
330
1F
100
AcDbEntity
  8
0
  6
Continuous
 62
     7
370
    25
100
AcDbLine
 10
1.5437994062
 20
6.3340377792
 30
0.0
 11
1.5262994884
 21
6.3340377792
 31
0.0
  0
LINE
  5
137
330
1F
100
AcDbEntity
  8
0
  6
Continuous
 62
     7
370
    25
100
AcDbLine
 10
1.5437994062
 20
6.3340377792
 30
0.0
 11
1.5437994062
 21
6.332064952
 31
0.0
  0
LINE
  5
138
330
1F
100
AcDbEntity
  8
0
  6
Continuous
 62
     7
370
    25
100
AcDbLine
 10
1.5262994884
 20
6.2065377754
 30
0.0
 11
1.5437994062
 21
6.2065377754
 31
0.0
  0
LINE
  5
139
330
1F
100
AcDbEntity
  8
0
  6
Continuous
 62
     7
370
    25
100
AcDbLine
 10
1.5437994062
 20
6.208510566
 30
0.0
 11
1.5437994062
 21
6.2065377754
 31
0.0
  0
LINE
  5
13A
330
1F
100
AcDbEntity
  8
0
  6
Continuous
 62
     7
370
    25
100
AcDbLine
 10
5.4380495128
 20
6.346467489
 30
0.0
 11
5.3705495993
 21
6.346467489
 31
0.0
  0
LINE
  5
13B
330
1F
100
AcDbEntity
  8
0
  6
Continuous
 62
     7
370
    25
100
AcDbLine
 10
5.4380495128
 20
6.346467489
 30
0.0
 11
5.4380495128
 21
6.3452555963
 31
0.0
  0
LWPOLYLINE
  5
13C
330
1F
100
AcDbEntity
  8
0
  6
Continuous
 62
     7
370
    25
100
AcDbPolyline
 90
       21
 70
   128
 43
0.0
 10
1.0274244514
 20
6.4942706549
 10
1.0291558314
 20
6.498700377
 10
1.0341805
 20
6.5026964842
 10
1.042006543
 20
6.5058678209
 10
1.0518680024
 20
6.5079039707
 10
1.0627994561
 20
6.5086056159
 10
1.0737309098
 20
6.5079039707
 10
1.0835923692
 20
6.5058678209
 10
1.0914184121
 20
6.5026964842
 10
1.0964430808
 20
6.498700377
 10
1.0981744608
 20
6.4942706549
 10
1.0964430808
 20
6.4898409327
 10
1.0914184121
 20
6.4858448255
 10
1.0835923692
 20
6.4826734888
 10
1.0737309098
 20
6.480637339
 10
1.0627994561
 20
6.4799357671
 10
1.0518680024
 20
6.480637339
 10
1.042006543
 20
6.4826734888
 10
1.0341805
 20
6.4858448255
 10
1.0291558314
 20
6.4898409327
 10
1.0274244514
 20
6.4942706549
  0
LWPOLYLINE
  5
13D
330
1F
100
AcDbEntity
  8
0
  6
Continuous
 62
     7
370
    25
100
AcDbPolyline
 90
       22
 70
   128
 43
0.0
 10
0.8790494388
 20
6.4942706549
 10
0.8808154317
 20
6.4990184934
 10
0.885956479
 20
6.5033445234
 10
0.8940157192
 20
6.5068642627
 10
0.904277134
 20
6.5092649483
 10
0.9158289072
 20
6.5103334026
 10
0.9276446774
 20
6.5099745868
 10
0.93867447
 20
6.5082204004
 10
0.9479382696
 20
6.5052267483
 10
0.9546129925
 20
6.5012595341
 10
0.9581054522
 20
6.4966714138
 10
0.9581054522
 20
6.4918698959
 10
0.9546129925
 20
6.4872817756
 10
0.9479382696
 20
6.4833145614
 10
0.93867447
 20
6.4803209093
 10
0.9276446774
 20
6.4785667229
 10
0.9158289072
 20
6.4782079071
 10
0.904277134
 20
6.4792763614
 10
0.8940157192
 20
6.481677047
 10
0.885956479
 20
6.4851967864
 10
0.8808154317
 20
6.4895228164
 10
0.8790494388
 20
6.4942706549
  0
ELLIPSE
  5
13E
330
1F
100
AcDbEntity
  8
0
  6
Continuous
 62
     7
370
    25
100
AcDbEllipse
 10
0.9907994551
 20
6.4942706567
 30
0.0
 11
0.1397500000000001
 21
0.0
 31
0.0
210
0.0
220
0.0
230
1.0
 40
0.2827168793
 41
0.0
 42
6.283185307179586
  0
ELLIPSE
  5
13F
330
1F
100
AcDbEntity
  8
0
  6
Continuous
 62
     7
370
    25
100
AcDbEllipse
 10
0.9907994551
 20
6.0469905438
 30
0.0
 11
0.1397500000000001
 21
0.0
 31
0.0
210
0.0
220
0.0
230
1.0
 40
0.2827168793
 41
3.141649074547135
 42
6.283185307179586
  0
SPLINE
  5
140
330
1F
100
AcDbEntity
  8
0
  6
Continuous
 62
     7
370
    25
100
AcDbSpline
210
0.0
220
0.0
230
1.0
 70
     8
 71
     3
 72
    25
 73
    21
 74
     0
 42
0.000000001
 43
0.00000001
 40
0.0
 40
0.0
 40
0.0
 40
0.0
 40
0.0271992096806683
 40
0.0563899329941711
 40
0.081292977785532
 40
0.1086996854988421
 40
0.1586408512865015
 40
0.2213612093799795
 40
0.2405491971239832
 40
0.2678243584558123
 40
0.3466245512650195
 40
0.4204860001470037
 40
0.4769692394828784
 40
0.5520001335137592
 40
0.6210183067772266
 40
0.6842028465350964
 40
0.7417879898202967
 40
0.8124205376337368
 40
0.8782848997846013
 40
1.0
 40
1.0
 40
1.0
 40
1.0
 10
1.031018696550311
 20
6.232449662778778
 30
0.0
 10
1.031141254253857
 20
6.233971183711578
 30
0.0
 10
1.031395343279681
 20
6.237125630640629
 30
0.0
 10
1.033228091871151
 20
6.241517629558742
 30
0.0
 10
1.035641603110514
 20
6.245649969313882
 30
0.0
 10
1.039204474254851
 20
6.250586693228724
 30
0.0
 10
1.044757627198782
 20
6.256922135938733
 30
0.0
 10
1.050347290571655
 20
6.262617779066313
 30
0.0
 10
1.055108031515475
 20
6.26721154128765
 30
0.0
 10
1.060602205539112
 20
6.272454418028411
 30
0.0
 10
1.068546259440774
 20
6.279935681566986
 30
0.0
 10
1.077752400584072
 20
6.288564891364601
 30
0.0
 10
1.086669396481378
 20
6.297009217362884
 30
0.0
 10
1.095096995584264
 20
6.305313011549027
 30
0.0
 10
1.103377351992765
 20
6.313900594097941
 30
0.0
 10
1.110471281962337
 20
6.32171006198381
 30
0.0
 10
1.117022655145358
 20
6.329480122008744
 30
0.0
 10
1.122686825893577
 20
6.337123921943729
 30
0.0
 10
1.128739366392864
 20
6.346827138209063
 30
0.0
 10
1.129837127047719
 20
6.352179607571721
 30
0.0
 10
1.130549433429412
 20
6.355652676193722
 30
0.0
  0
SPLINE
  5
141
330
1F
100
AcDbEntity
  8
0
  6
Continuous
 62
     7
370
    25
100
AcDbSpline
210
0.0
220
0.0
230
1.0
 70
     8
 71
     3
 72
    22
 73
    18
 74
     0
 42
0.000000001
 43
0.00000001
 40
0.0
 40
0.0
 40
0.0
 40
0.0
 40
0.0419756343312937
 40
0.1427116713120404
 40
0.2564823686250584
 40
0.3839168110824707
 40
0.4568815872058122
 40
0.5522710527385966
 40
0.6540562913767226
 40
0.7140582109882403
 40
0.7699339013461528
 40
0.8184133060174822
 40
0.8596027120245578
 40
0.8950114416411862
 40
0.927166304754988
 40
0.964872714191913
 40
1.0
 40
1.0
 40
1.0
 40
1.0
 10
1.118972727164511
 20
6.177401092037899
 30
0.0
 10
1.118171298188868
 20
6.177246428366082
 30
0.0
 10
1.115446544403156
 20
6.176720592093494
 30
0.0
 10
1.107998041651822
 20
6.178473106134645
 30
0.0
 10
1.097909016340965
 20
6.181363181974377
 30
0.0
 10
1.087687212397769
 20
6.185485411573376
 30
0.0
 10
1.077754433509032
 20
6.190073918136148
 30
0.0
 10
1.068543490703832
 20
6.19487373003427
 30
0.0
 10
1.05976005232609
 20
6.200111668409835
 30
0.0
 10
1.052362221191463
 20
6.205005836560428
 30
0.0
 10
1.046928957612886
 20
6.209043627128442
 30
0.0
 10
1.042313294357324
 20
6.212945514469861
 30
0.0
 10
1.03857367060877
 20
6.216593939240461
 30
0.0
 10
1.035641606674217
 20
6.220079103091265
 30
0.0
 10
1.033227715006704
 20
6.223766082048383
 30
0.0
 10
1.031395502483596
 20
6.227838713277563
 30
0.0
 10
1.031141297971524
 20
6.230949397225465
 30
0.0
 10
1.031018696550311
 20
6.232449662778778
 30
0.0
  0
LINE
  5
142
330
1F
100
AcDbEntity
  8
0
  6
Continuous
 62
     7
370
    25
100
AcDbLine
 10
1.1015099889
 20
6.055121628
 30
0.0
 11
1.1015099889
 21
6.1326996984
 31
0.0
  0
ELLIPSE
  5
143
330
1F
100
AcDbEntity
  8
0
  6
Continuous
 62
     7
370
    25
100
AcDbEllipse
 10
0.9907994551
 20
6.1568107248
 30
0.0
 11
0.1397500000000001
 21
0.0
 31
0.0
210
0.0
220
0.0
230
1.0
 40
0.2827168793
 41
5.626801089617389
 42
6.282486272906186
  0
LINE
  5
144
330
1F
100
AcDbEntity
  8
0
  6
Continuous
 62
     7
370
    25
100
AcDbLine
 10
1.1512994471
 20
6.3556526762
 30
0.0
 11
1.1512994471
 21
6.3636627837
 31
0.0
  0
LINE
  5
145
330
1F
100
AcDbEntity
  8
0
  6
Continuous
 62
     7
370
    25
100
AcDbLine
 10
1.1512994471
 20
6.176912771
 30
0.0
 11
1.1512994471
 21
6.3556526762
 31
0.0
  0
LINE
  5
146
330
1F
100
AcDbEntity
  8
0
  6
Continuous
 62
     7
370
    25
100
AcDbLine
 10
1.1015099889
 20
6.1326996984
 30
0.0
 11
1.488299474
 21
6.1326996984
 31
0.0
  0
LINE
  5
147
330
1F
100
AcDbEntity
  8
0
  6
Continuous
 62
     7
370
    25
100
AcDbLine
 10
1.488299474
 20
6.1326996984
 30
0.0
 11
1.5080212195
 21
6.1146697334
 31
0.0
  0
LINE
  5
148
330
1F
100
AcDbEntity
  8
0
  6
Continuous
 62
     7
370
    25
100
AcDbLine
 10
1.5080212195
 20
6.1146697334
 30
0.0
 11
1.5080212195
 21
6.0951029394
 31
0.0
  0
ARC
  5
149
330
1F
100
AcDbEntity
  8
0
  6
Continuous
 62
     7
370
    25
100
AcDbCircle
 10
1.532001891
 20
3.7646802545
 30
0.0
 40
2.330546065438069
100
AcDbArc
 50
90.5895680558
 51
100.6446439526
  0
LINE
  5
14A
330
1F
100
AcDbEntity
  8
0
  6
Continuous
 62
     7
370
    25
100
AcDbLine
 10
1.1512994471
 20
6.180921748
 30
0.0
 11
1.1548638459
 21
6.180921748
 31
0.0
  0
LINE
  5
14B
330
1F
100
AcDbEntity
  8
0
  6
Continuous
 62
     7
370
    25
100
AcDbLine
 10
1.488299474
 20
6.1771627615
 30
0.0
 11
1.488299474
 21
6.1326996984
 31
0.0
  0
LINE
  5
14C
330
1F
100
AcDbEntity
  8
0
  6
Continuous
 62
     7
370
    25
100
AcDbLine
 10
1.4924112265
 20
6.1771627615
 30
0.0
 11
1.5080212195
 21
6.1628918197
 31
0.0
  0
LINE
  5
14D
330
1F
100
AcDbEntity
  8
0
  6
Continuous
 62
     7
370
    25
100
AcDbLine
 10
1.5080212195
 20
6.1628918197
 30
0.0
 11
1.5080212195
 21
6.1146697334
 31
0.0
  0
LINE
  5
14E
330
1F
100
AcDbEntity
  8
0
  6
Continuous
 62
     7
370
    25
100
AcDbLine
 10
1.5262994884
 20
6.1896627604
 30
0.0
 11
1.5262994884
 21
6.3509127576
 31
0.0
  0
LINE
  5
14F
330
1F
100
AcDbEntity
  8
0
  6
Continuous
 62
     7
370
    25
100
AcDbLine
 10
1.3587994367
 20
6.3203878169
 30
0.0
 11
1.3587994367
 21
6.2201877011
 31
0.0
  0
LINE
  5
150
330
1F
100
AcDbEntity
  8
0
  6
Continuous
 62
     7
370
    25
100
AcDbLine
 10
1.3275494577
 20
6.3203878169
 30
0.0
 11
1.3587994367
 21
6.3203878169
 31
0.0
  0
LINE
  5
151
330
1F
100
AcDbEntity
  8
0
  6
Continuous
 62
     7
370
    25
100
AcDbLine
 10
1.3275494577
 20
6.2201877011
 30
0.0
 11
1.3275494577
 21
6.3203878169
 31
0.0
  0
LINE
  5
152
330
1F
100
AcDbEntity
  8
0
  6
Continuous
 62
     7
370
    25
100
AcDbLine
 10
1.3587994367
 20
6.2201877011
 30
0.0
 11
1.3275494577
 21
6.2201877011
 31
0.0
  0
LINE
  5
153
330
1F
100
AcDbEntity
  8
0
  6
Continuous
 62
     7
370
    25
100
AcDbLine
 10
0.6580494518
 20
6.095287774
 30
0.0
 11
0.5955494571
 21
6.095287774
 31
0.0
  0
LINE
  5
154
330
1F
100
AcDbEntity
  8
0
  6
Continuous
 62
     7
370
    25
100
AcDbLine
 10
0.5955494571
 20
6.095287774
 30
0.0
 11
0.5955494571
 21
4.97028776
 31
0.0
  0
LINE
  5
155
330
1F
100
AcDbEntity
  8
0
  6
Continuous
 62
     7
370
    25
100
AcDbLine
 10
0.6580494518
 20
4.97028776
 30
0.0
 11
0.6580494518
 21
6.095287774
 31
0.0
  0
LINE
  5
156
330
1F
100
AcDbEntity
  8
0
  6
Continuous
 62
     7
370
    25
100
AcDbLine
 10
0.5955494571
 20
6.4702877786
 30
0.0
 11
0.6580494518
 21
6.4702877786
 31
0.0
  0
LINE
  5
157
330
1F
100
AcDbEntity
  8
0
  6
Continuous
 62
     7
370
    25
100
AcDbLine
 10
0.5955494571
 20
6.095287774
 30
0.0
 11
0.5955494571
 21
6.4702877786
 31
0.0
  0
LINE
  5
158
330
1F
100
AcDbEntity
  8
0
  6
Continuous
 62
     7
370
    25
100
AcDbLine
 10
0.6580494518
 20
6.095287774
 30
0.0
 11
0.6580494518
 21
6.4702877786
 31
0.0
  0
LINE
  5
159
330
1F
100
AcDbEntity
  8
0
  6
Continuous
 62
     7
370
    25
100
AcDbLine
 10
0.5955494571
 20
6.4702877786
 30
0.0
 11
0.5955494571
 21
6.7202877572
 31
0.0
  0
LINE
  5
15A
330
1F
100
AcDbEntity
  8
0
  6
Continuous
 62
     7
370
    25
100
AcDbLine
 10
0.6580494518
 20
6.4702877786
 30
0.0
 11
0.6580494518
 21
6.7202877572
 31
0.0
  0
LINE
  5
15B
330
1F
100
AcDbEntity
  8
0
  6
Continuous
 62
     8
370
    25
100
AcDbLine
 10
6.4205493629
 20
6.6265377469
 30
0.0
 11
6.4205493629
 21
6.2338530999
 31
0.0
  0
LINE
  5
15C
330
1F
100
AcDbEntity
  8
0
  6
Continuous
 62
     8
370
    25
100
AcDbLine
 10
5.4705492974
 20
6.2338530999
 30
0.0
 11
5.4705492974
 21
6.6265377469
 31
0.0
  0
LINE
  5
15D
330
1F
100
AcDbEntity
  8
0
  6
Continuous
 62
     8
370
    25
100
AcDbLine
 10
6.4205493629
 20
5.6896059521
 30
0.0
 11
6.4205493629
 21
5.4202877766
 31
0.0
  0
LINE
  5
15E
330
1F
100
AcDbEntity
  8
0
  6
Continuous
 62
     8
370
    25
100
AcDbLine
 10
5.4705492974
 20
5.4202877766
 30
0.0
 11
5.4705492974
 21
5.6896059521
 31
0.0
  0
LINE
  5
15F
330
1F
100
AcDbEntity
  8
0
  6
Continuous
 62
     8
370
    25
100
AcDbLine
 10
1.9840495204
 20
6.270287759
 30
0.0
 11
1.9840495204
 21
6.1801627568
 31
0.0
  0
LINE
  5
160
330
1F
100
AcDbEntity
  8
0
  6
Continuous
 62
     8
370
    25
100
AcDbLine
 10
1.9840495204
 20
6.3604127612
 30
0.0
 11
1.9840495204
 21
6.270287759
 31
0.0
  0
LINE
  5
161
330
1F
100
AcDbEntity
  8
0
  6
Continuous
 62
     8
370
    25
100
AcDbLine
 10
5.0840495489
 20
6.270287759
 30
0.0
 11
5.0840495489
 21
6.3586627548
 31
0.0
  0
LINE
  5
162
330
1F
100
AcDbEntity
  8
0
  6
Continuous
 62
     8
370
    25
100
AcDbLine
 10
5.0840495489
 20
6.1819127633
 30
0.0
 11
5.0840495489
 21
6.270287759
 31
0.0
  0
LINE
  5
163
330
1F
100
AcDbEntity
  8
0
  6
Continuous
 62
     8
370
    25
100
AcDbLine
 10
1.5137995261
 20
6.3634127932
 30
0.0
 11
1.5137995261
 21
6.1771627615
 31
0.0
  0
LINE
  5
164
330
1F
100
AcDbEntity
  8
0
  6
Continuous
 62
     8
370
    25
100
AcDbLine
 10
1.1637994827
 20
6.1771627615
 30
0.0
 11
1.1637994827
 21
6.3634127932
 31
0.0
  0
LINE
  5
165
330
1F
100
AcDbEntity
  8
0
  6
Continuous
 62
     7
370
    25
100
AcDbLine
 10
9.0877820934
 20
4.4542831356
 30
0.0
 11
9.0877820934
 21
2.3042831726
 31
0.0
  0
LINE
  5
166
330
1F
100
AcDbEntity
  8
0
  6
Continuous
 62
     7
370
    25
100
AcDbLine
 10
9.3690320877
 20
2.3042831726
 30
0.0
 11
9.3690320877
 21
4.4542831356
 31
0.0
  0
SPLINE
  5
167
330
1F
100
AcDbEntity
  8
0
  6
Continuous
 62
     7
370
    25
100
AcDbSpline
210
0.0
220
0.0
230
1.0
 70
     8
 71
     3
 72
     9
 73
     5
 74
     0
 42
0.000000001
 43
0.00000001
 40
0.0
 40
0.0
 40
0.0
 40
0.0
 40
0.4146302944188005
 40
1.0
 40
1.0
 40
1.0
 40
1.0
 10
9.155242091145059
 20
2.493488540230163
 30
0.0
 10
9.156137682219198
 20
2.493189245614509
 30
0.0
 10
9.158297657228731
 20
2.49246741071802
 30
0.0
 10
9.160018898759029
 20
2.491040913231842
 30
0.0
 10
9.161026461406852
 20
2.490205884818345
 30
0.0
  0
SPLINE
  5
168
330
1F
100
AcDbEntity
  8
0
  6
Continuous
 62
     7
370
    25
100
AcDbSpline
210
0.0
220
0.0
230
1.0
 70
     8
 71
     3
 72
     9
 73
     5
 74
     0
 42
0.000000001
 43
0.00000001
 40
0.0
 40
0.0
 40
0.0
 40
0.0
 40
0.3838282573622962
 40
1.0
 40
1.0
 40
1.0
 40
1.0
 10
9.297569249886243
 20
2.491474390164463
 30
0.0
 10
9.298020456607349
 20
2.491830078850438
 30
0.0
 10
9.299195999867786
 20
2.492756765927675
 30
0.0
 10
9.300666196360288
 20
2.493209548440314
 30
0.0
 10
9.301572089895092
 20
2.493488540230162
 30
0.0
  0
LINE
  5
169
330
1F
100
AcDbEntity
  8
0
  6
Continuous
 62
     7
370
    25
100
AcDbLine
 10
9.2958018316
 20
2.4902127047
 30
0.0
 11
9.2975692499
 21
2.4914743902
 31
0.0
  0
SPLINE
  5
16A
330
1F
100
AcDbEntity
  8
0
  6
Continuous
 62
     7
370
    25
100
AcDbSpline
210
0.0
220
0.0
230
1.0
 70
     8
 71
     3
 72
     9
 73
     5
 74
     0
 42
0.000000001
 43
0.00000001
 40
0.0
 40
0.0
 40
0.0
 40
0.0
 40
0.4146302944188005
 40
1.0
 40
1.0
 40
1.0
 40
1.0
 10
9.301572089895092
 20
4.265077768013561
 30
0.0
 10
9.300676498820952
 20
4.265377062629215
 30
0.0
 10
9.298516523811418
 20
4.266098897525703
 30
0.0
 10
9.296795282281122
 20
4.267525395011882
 30
0.0
 10
9.295787719633298
 20
4.268360423425379
 30
0.0
  0
SPLINE
  5
16B
330
1F
100
AcDbEntity
  8
0
  6
Continuous
 62
     7
370
    25
100
AcDbSpline
210
0.0
220
0.0
230
1.0
 70
     8
 71
     3
 72
     9
 73
     5
 74
     0
 42
0.000000001
 43
0.00000001
 40
0.0
 40
0.0
 40
0.0
 40
0.0
 40
0.3838282573622962
 40
1.0
 40
1.0
 40
1.0
 40
1.0
 10
9.159244931153909
 20
4.267091918079261
 30
0.0
 10
9.158793724432801
 20
4.266736229393285
 30
0.0
 10
9.157618181172364
 20
4.265809542316048
 30
0.0
 10
9.156147984679862
 20
4.26535675980341
 30
0.0
 10
9.155242091145059
 20
4.265077768013561
 30
0.0
  0
LINE
  5
16C
330
1F
100
AcDbEntity
  8
0
  6
Continuous
 62
     7
370
    25
100
AcDbLine
 10
9.1610123495
 20
4.2683536035
 30
0.0
 11
9.1592449312
 21
4.2670919181
 31
0.0
  0
ARC
  5
16D
330
1F
100
AcDbEntity
  8
0
  6
Continuous
 62
     7
370
    25
100
AcDbCircle
 10
9.1377820905
 20
2.3042831541
 30
0.0
 40
0.0500000000000007
100
AcDbArc
 50
180.0
 51
270.0
  0
ARC
  5
16E
330
1F
100
AcDbEntity
  8
0
  6
Continuous
 62
     7
370
    25
100
AcDbCircle
 10
9.3190320905
 20
2.3042831541
 30
0.0
 40
0.0500000000000003
100
AcDbArc
 50
270.0
 51
0.0
  0
ARC
  5
16F
330
1F
100
AcDbEntity
  8
0
  6
Continuous
 62
     7
370
    25
100
AcDbCircle
 10
9.3190320905
 20
4.4542831541
 30
0.0
 40
0.0500000000000007
100
AcDbArc
 50
0.0
 51
90.0
  0
ARC
  5
170
330
1F
100
AcDbEntity
  8
0
  6
Continuous
 62
     7
370
    25
100
AcDbCircle
 10
9.1377820905
 20
4.4542831541
 30
0.0
 40
0.0500000000000007
100
AcDbArc
 50
90.0
 51
180.0
  0
CIRCLE
  5
171
330
1F
100
AcDbEntity
  8
0
  6
Continuous
 62
     7
370
    25
100
AcDbCircle
 10
9.7784070905
 20
3.3792831541
 30
0.0
 40
0.3100000000000005
  0
CIRCLE
  5
172
330
1F
100
AcDbEntity
  8
0
  6
Continuous
 62
     7
370
    25
100
AcDbCircle
 10
9.7784070905
 20
3.3792831541
 30
0.0
 40
0.3050000000000015
  0
ARC
  5
173
330
1F
100
AcDbEntity
  8
0
  6
Continuous
 62
     7
370
    25
100
AcDbCircle
 10
9.7784070905
 20
3.3792831541
 30
0.0
 40
0.3312500000000009
100
AcDbArc
 50
264.1299406899
 51
95.8700593101
  0
LWPOLYLINE
  5
174
330
1F
100
AcDbEntity
  8
0
  6
Continuous
 62
     7
370
    25
100
AcDbPolyline
 90
        9
 70
   128
 43
0.0
 10
9.7445292316
 20
3.7087962276
 10
9.744030424
 20
3.7136479048
 10
9.7435507929
 20
3.7183131343
 10
9.7431087446
 20
3.7226126546
 10
9.7427212925
 20
3.7263811744
 10
9.7424033228
 20
3.7294739354
 10
9.7421670455
 20
3.7317721021
 10
9.7420215539
 20
3.7331872725
 10
9.7419724211
 20
3.7336651069
  0
ARC
  5
175
330
1F
100
AcDbEntity
  8
0
  6
Continuous
 62
     7
370
    25
100
AcDbCircle
 10
9.7784070905
 20
3.3792831541
 30
0.0
 40
0.3562500000000006
100
AcDbArc
 50
264.1299406899
 51
95.8700593101
  0
LWPOLYLINE
  5
176
330
1F
100
AcDbEntity
  8
0
  6
Continuous
 62
     7
370
    25
100
AcDbPolyline
 90
        9
 70
   128
 43
0.0
 10
9.7445292316
 20
3.0497700807
 10
9.744030424
 20
3.0449184034
 10
9.7435507929
 20
3.040253174
 10
9.7431087446
 20
3.0359536536
 10
9.7427212925
 20
3.0321851338
 10
9.7424033228
 20
3.0290923729
 10
9.7421670455
 20
3.0267942061
 10
9.7420215539
 20
3.0253790358
 10
9.7419724211
 20
3.0249012013
  0
LINE
  5
177
330
1F
100
AcDbEntity
  8
0
  6
Continuous
 62
     7
370
    25
100
AcDbLine
 10
9.7419724211
 20
3.7336651069
 30
0.0
 11
9.3690320877
 21
3.6953224465
 31
0.0
  0
LINE
  5
178
330
1F
100
AcDbEntity
  8
0
  6
Continuous
 62
     7
370
    25
100
AcDbLine
 10
9.3690320877
 20
3.0632438617
 30
0.0
 11
9.7419724211
 21
3.0249012013
 31
0.0
  0
ARC
  5
179
330
1F
100
AcDbEntity
  8
0
  6
Continuous
 62
     7
370
    25
100
AcDbCircle
 10
9.2284070905
 20
3.3792831541
 30
0.0
 40
0.3000000000000005
100
AcDbArc
 50
117.9531868834
 51
242.0468131166
  0
SPLINE
  5
17A
330
1F
100
AcDbEntity
  8
0
  6
Continuous
 62
     7
370
    25
100
AcDbSpline
210
0.0
220
0.0
230
1.0
 70
     8
 71
     3
 72
    11
 73
     7
 74
     0
 42
0.000000001
 43
0.00000001
 40
0.0
 40
0.0
 40
0.0
 40
0.0
 40
0.1709736958010812
 40
0.3996515658292575
 40
0.6823713847904854
 40
1.0
 40
1.0
 40
1.0
 40
1.0
 10
9.15897887172745
 20
4.267199276839043
 30
0.0
 10
9.156551325422813
 20
4.265214237907724
 30
0.0
 10
9.150876928099727
 20
4.260574202998164
 30
0.0
 10
9.14513696037232
 20
4.248490209201273
 30
0.0
 10
9.140812518324502
 20
4.232715894021017
 30
0.0
 10
9.140293394103564
 20
4.220658407921707
 30
0.0
 10
9.140018739089854
 20
4.214279108177347
 30
0.0
  0
LINE
  5
17B
330
1F
100
AcDbEntity
  8
0
  6
Continuous
 62
     7
370
    25
100
AcDbLine
 10
9.1400187391
 20
2.5442872001
 30
0.0
 11
9.1400187391
 21
4.2142791082
 31
0.0
  0
SPLINE
  5
17C
330
1F
100
AcDbEntity
  8
0
  6
Continuous
 62
     7
370
    25
100
AcDbSpline
210
0.0
220
0.0
230
1.0
 70
     8
 71
     3
 72
    11
 73
     7
 74
     0
 42
0.000000001
 43
0.00000001
 40
0.0
 40
0.0
 40
0.0
 40
0.0
 40
0.1709737389028675
 40
0.3996516328109146
 40
0.6823713995422336
 40
1.0
 40
1.0
 40
1.0
 40
1.0
 10
9.15897887172745
 20
2.49136703140468
 30
0.0
 10
9.156551324026694
 20
2.493352070288021
 30
0.0
 10
9.150876923919641
 20
2.49799210469337
 30
0.0
 10
9.14513694792515
 20
2.510076096504834
 30
0.0
 10
9.140812522068003
 20
2.52585041605013
 30
0.0
 10
9.140293395410549
 20
2.537907900682609
 30
0.0
 10
9.140018739089854
 20
2.544287200066376
 30
0.0
  0
SPLINE
  5
17D
330
1F
100
AcDbEntity
  8
0
  6
Continuous
 62
     7
370
    25
100
AcDbSpline
210
0.0
220
0.0
230
1.0
 70
     8
 71
     3
 72
    11
 73
     7
 74
     0
 42
0.000000001
 43
0.00000001
 40
0.0
 40
0.0
 40
0.0
 40
0.0
 40
0.2573132124079239
 40
0.5000186583168336
 40
0.7399460765785545
 40
1.0
 40
1.0
 40
1.0
 40
1.0
 10
9.2978353093127
 20
2.49136703140468
 30
0.0
 10
9.287050297894552
 20
2.486199023946615
 30
0.0
 10
9.26609254415634
 20
2.476156398730557
 30
0.0
 10
9.228545394197536
 20
2.471526082123712
 30
0.0
 10
9.190875370645283
 20
2.476155128940951
 30
0.0
 10
9.16989258858748
 20
2.486162121711637
 30
0.0
 10
9.15897887172745
 20
2.49136703140468
 30
0.0
  0
SPLINE
  5
17E
330
1F
100
AcDbEntity
  8
0
  6
Continuous
 62
     7
370
    25
100
AcDbSpline
210
0.0
220
0.0
230
1.0
 70
     8
 71
     3
 72
    11
 73
     7
 74
     0
 42
0.000000001
 43
0.00000001
 40
0.0
 40
0.0
 40
0.0
 40
0.0
 40
0.1709736958010812
 40
0.3996515658292575
 40
0.6823713847904854
 40
1.0
 40
1.0
 40
1.0
 40
1.0
 10
9.2978353093127
 20
2.49136703140468
 30
0.0
 10
9.300262855617339
 20
2.493352070335999
 30
0.0
 10
9.305937252940424
 20
2.497992105245559
 30
0.0
 10
9.31167722066783
 20
2.51007609904245
 30
0.0
 10
9.316001662715648
 20
2.525850414222707
 30
0.0
 10
9.316520786936588
 20
2.537907900322017
 30
0.0
 10
9.316795441950298
 20
2.544287200066376
 30
0.0
  0
LINE
  5
17F
330
1F
100
AcDbEntity
  8
0
  6
Continuous
 62
     7
370
    25
100
AcDbLine
 10
9.316795442
 20
4.2142791082
 30
0.0
 11
9.316795442
 21
2.5442872001
 31
0.0
  0
SPLINE
  5
180
330
1F
100
AcDbEntity
  8
0
  6
Continuous
 62
     7
370
    25
100
AcDbSpline
210
0.0
220
0.0
230
1.0
 70
     8
 71
     3
 72
    11
 73
     7
 74
     0
 42
0.000000001
 43
0.00000001
 40
0.0
 40
0.0
 40
0.0
 40
0.0
 40
0.1709737389028675
 40
0.3996516328109146
 40
0.6823713995422336
 40
1.0
 40
1.0
 40
1.0
 40
1.0
 10
9.2978353093127
 20
4.267199276839043
 30
0.0
 10
9.300262857013456
 20
4.265214237955702
 30
0.0
 10
9.305937257120508
 20
4.260574203550354
 30
0.0
 10
9.311677233115
 20
4.248490211738889
 30
0.0
 10
9.316001658972146
 20
4.232715892193593
 30
0.0
 10
9.316520785629601
 20
4.220658407561115
 30
0.0
 10
9.316795441950298
 20
4.214279108177347
 30
0.0
  0
SPLINE
  5
181
330
1F
100
AcDbEntity
  8
0
  6
Continuous
 62
     7
370
    25
100
AcDbSpline
210
0.0
220
0.0
230
1.0
 70
     8
 71
     3
 72
    11
 73
     7
 74
     0
 42
0.000000001
 43
0.00000001
 40
0.0
 40
0.0
 40
0.0
 40
0.0
 40
0.2573132124079239
 40
0.500018658316838
 40
0.7399460765785545
 40
1.0
 40
1.0
 40
1.0
 40
1.0
 10
9.15897887172745
 20
4.267199276839043
 30
0.0
 10
9.169763883145597
 20
4.272367284297108
 30
0.0
 10
9.190721636883811
 20
4.282409909513166
 30
0.0
 10
9.228268786842616
 20
4.287040226120012
 30
0.0
 10
9.265938810394868
 20
4.282411179302772
 30
0.0
 10
9.28692159245267
 20
4.272404186532086
 30
0.0
 10
9.2978353093127
 20
4.267199276839043
 30
0.0
  0
SPLINE
  5
182
330
1F
100
AcDbEntity
  8
0
  6
Continuous
 62
     7
370
    25
100
AcDbSpline
210
0.0
220
0.0
230
1.0
 70
     8
 71
     3
 72
    13
 73
     9
 74
     0
 42
0.000000001
 43
0.00000001
 40
0.0
 40
0.0
 40
0.0
 40
0.0
 40
0.1865323110572334
 40
0.3732295903259618
 40
0.5599274119000497
 40
0.7066728447429288
 40
0.8536427204212801
 40
1.0
 40
1.0
 40
1.0
 40
1.0
 10
9.316795441950298
 20
2.544287200066376
 30
0.0
 10
9.306129044338643
 20
2.547733947450266
 30
0.0
 10
9.284786815808436
 20
2.554630490503612
 30
0.0
 10
9.25106602283514
 20
2.55554508529734
 30
0.0
 10
9.220020766555729
 20
2.555873558370636
 30
0.0
 10
9.191338966977602
 20
2.555081066751758
 30
0.0
 10
9.164927515285429
 20
2.553019282535569
 30
0.0
 10
9.148310096328782
 20
2.547193838860004
 30
0.0
 10
9.140018739089854
 20
2.544287200066376
 30
0.0
  0
SPLINE
  5
183
330
1F
100
AcDbEntity
  8
0
  6
Continuous
 62
     7
370
    25
100
AcDbSpline
210
0.0
220
0.0
230
1.0
 70
     8
 71
     3
 72
    13
 73
     9
 74
     0
 42
0.000000001
 43
0.00000001
 40
0.0
 40
0.0
 40
0.0
 40
0.0
 40
0.1865467337994315
 40
0.3732334559267719
 40
0.5599207572695531
 40
0.7066579291239777
 40
0.853619450576804
 40
1.0
 40
1.0
 40
1.0
 40
1.0
 10
9.140023478201774
 20
4.214289301392928
 30
0.0
 10
9.150689301496099
 20
4.210837962431005
 30
0.0
 10
9.172028951927746
 20
4.203932694554708
 30
0.0
 10
9.205749576124063
 20
4.203022193512842
 30
0.0
 10
9.236792313516569
 20
4.202692152744224
 30
0.0
 10
9.265471600078278
 20
4.20348615694263
 30
0.0
 10
9.29188414603437
 20
4.205543101642804
 30
0.0
 10
9.308499143838631
 20
4.211378487181535
 30
0.0
 10
9.316790189510973
 20
4.214290401380221
 30
0.0
  0
LINE
  5
184
330
1F
100
AcDbEntity
  8
0
  6
Continuous
 62
     7
370
    25
100
AcDbLine
 10
9.1377820891
 20
2.2542831769
 30
0.0
 11
9.3190320919
 21
2.2542831769
 31
0.0
  0
LINE
  5
185
330
1F
100
AcDbEntity
  8
0
  6
Continuous
 62
     7
370
    25
100
AcDbLine
 10
9.1377820891
 20
4.5042831314
 30
0.0
 11
9.3190320919
 21
4.5042831314
 31
0.0
  0
LINE
  5
186
330
1F
100
AcDbEntity
  8
0
  6
Continuous
 62
     7
370
    25
100
AcDbLine
 10
9.6034070952
 20
4.0288021842
 30
0.0
 11
9.9784070998
 21
3.8122958653
 31
0.0
  0
LINE
  5
187
330
1F
100
AcDbEntity
  8
0
  6
Continuous
 62
     7
370
    25
100
AcDbLine
 10
9.9784070998
 20
2.946270443
 30
0.0
 11
9.6034070952
 21
2.7297641241
 31
0.0
  0
ARC
  5
188
330
1F
100
AcDbEntity
  8
0
  6
Continuous
 62
     7
370
    25
100
AcDbCircle
 10
9.2284070905
 20
3.3792831541
 30
0.0
 40
0.7500000000000031
100
AcDbArc
 50
280.8069228749
 51
300.0
  0
ARC
  5
189
330
1F
100
AcDbEntity
  8
0
  6
Continuous
 62
     7
370
    25
100
AcDbCircle
 10
9.2284070905
 20
3.3792831541
 30
0.0
 40
0.7500000000000001
100
AcDbArc
 50
100.8069228749
 51
259.1930771251
  0
ARC
  5
18A
330
1F
100
AcDbEntity
  8
0
  6
Continuous
 62
     7
370
    25
100
AcDbCircle
 10
9.2284070905
 20
3.3792831541
 30
0.0
 40
0.75
100
AcDbArc
 50
60.0
 51
79.1930771251
  0
CIRCLE
  5
18B
330
1F
100
AcDbEntity
  8
0
  6
Continuous
 62
     7
370
    25
100
AcDbCircle
 10
8.9471570905
 20
2.8921438645
 30
0.0
 40
0.0696949803201083
  0
CIRCLE
  5
18C
330
1F
100
AcDbEntity
  8
0
  6
Continuous
 62
     7
370
    25
100
AcDbCircle
 10
8.9471570905
 20
3.8664224438
 30
0.0
 40
0.0696949803201066
  0
ARC
  5
18D
330
1F
100
AcDbEntity
  8
0
  6
Continuous
 62
     7
370
    25
100
AcDbCircle
 10
9.7284070905
 20
3.3792831541
 30
0.0
 40
0.5000000000000016
100
AcDbArc
 50
300.0
 51
60.0
  0
LINE
  5
18E
330
1F
100
AcDbEntity
  8
0
  6
Continuous
 62
     8
370
    25
100
AcDbLine
 10
9.7445292316
 20
3.0497700807
 30
0.0
 11
9.3690320877
 21
3.0883756564
 31
0.0
  0
ARC
  5
18F
330
1F
100
AcDbEntity
  8
0
  6
Continuous
 62
     8
370
    25
100
AcDbCircle
 10
9.2284070905
 20
3.3792831541
 30
0.0
 40
0.2750000000000006
100
AcDbArc
 50
120.754703633
 51
239.245296367
  0
LINE
  5
190
330
1F
100
AcDbEntity
  8
0
  6
Continuous
 62
     8
370
    25
100
AcDbLine
 10
9.3690320877
 20
3.6701906519
 30
0.0
 11
9.7445292316
 21
3.7087962276
 31
0.0
  0
LINE
  5
191
330
1F
100
AcDbEntity
  8
0
  6
Continuous
 62
     8
370
    25
100
AcDbLine
 10
9.3690320877
 20
2.3042831726
 30
0.0
 11
9.0877820934
 21
2.3042831726
 31
0.0
  0
LINE
  5
192
330
1F
100
AcDbEntity
  8
0
  6
Continuous
 62
     8
370
    25
100
AcDbLine
 10
9.0877820934
 20
4.4542831356
 30
0.0
 11
9.3690320877
 21
4.4542831356
 31
0.0
  0
ENDSEC
  0
SECTION
  2
OBJECTS
  0
DICTIONARY
  5
C
330
0
100
AcDbDictionary
281
     1
  3
ACAD_GROUP
350
D
  3
ACAD_LAYOUT
350
1A
  3
ACAD_MLINESTYLE
350
17
  3
ACAD_PLOTSETTINGS
350
19
  3
ACAD_PLOTSTYLENAME
350
E
  3
ACAD_SCALELIST
350
47
  0
DICTIONARY
  5
D
102
{ACAD_REACTORS
330
C
102
}
330
C
100
AcDbDictionary
281
     1
  0
DICTIONARY
  5
1A
102
{ACAD_REACTORS
330
C
102
}
330
C
100
AcDbDictionary
281
     1
  3
Layout1
350
1E
  3
Layout2
350
26
  3
Model
350
22
  0
DICTIONARY
  5
17
102
{ACAD_REACTORS
330
C
102
}
330
C
100
AcDbDictionary
281
     1
  3
Standard
350
18
  0
DICTIONARY
  5
19
102
{ACAD_REACTORS
330
C
102
}
330
C
100
AcDbDictionary
281
     1
  0
ACDBDICTIONARYWDFLT
  5
E
102
{ACAD_REACTORS
330
C
102
}
330
C
100
AcDbDictionary
281
     1
  3
Normal
350
F
100
AcDbDictionaryWithDefault
340
F
  0
DICTIONARY
  5
47
102
{ACAD_REACTORS
330
C
102
}
330
C
100
AcDbDictionary
281
     1
  3
A0
350
48
  3
A1
350
49
  3
A2
350
4A
  3
A3
350
4B
  3
A4
350
4C
  3
A5
350
4D
  3
A6
350
4E
  3
A7
350
4F
  3
A8
350
50
  3
A9
350
51
  3
B0
350
52
  3
B1
350
53
  3
B2
350
54
  3
B3
350
55
  3
B4
350
56
  3
B5
350
57
  3
B6
350
58
  3
B7
350
59
  3
B8
350
5A
  3
B9
350
5B
  3
C0
350
5C
  3
C1
350
5D
  3
C2
350
5E
  3
C3
350
5F
  3
C4
350
60
  3
C5
350
61
  3
C6
350
62
  3
C7
350
63
  3
C8
350
64
  3
C9
350
65
  3
D0
350
66
  3
D1
350
67
  3
D2
350
68
  0
LAYOUT
  5
1E
102
{ACAD_REACTORS
330
1A
102
}
330
1A
100
AcDbPlotSettings
  1

  2
none_device
  4

  6

 40
0.0
 41
0.0
 42
0.0
 43
0.0
 44
0.0
 45
0.0
 46
0.0
 47
0.0
 48
0.0
 49
0.0
140
0.0
141
0.0
142
1.0
143
1.0
 70
   688
 72
     0
 73
     0
 74
     5
  7

 75
    16
147
1.0
148
0.0
149
0.0
100
AcDbLayout
  1
Layout1
 70
     1
 71
     1
 10
0.0
 20
0.0
 11
12.0
 21
9.0
 12
0.0
 22
0.0
 32
0.0
 14
1.0000000000E+20
 24
1.0000000000E+20
 34
1.0000000000E+20
 15
-1.0000000000E+20
 25
-1.0000000000E+20
 35
-1.0000000000E+20
146
0.0
 13
0.0
 23
0.0
 33
0.0
 16
1.0
 26
0.0
 36
0.0
 17
0.0
 27
1.0
 37
0.0
 76
     0
330
1B
  0
LAYOUT
  5
26
102
{ACAD_REACTORS
330
1A
102
}
330
1A
100
AcDbPlotSettings
  1

  2
none_device
  4

  6

 40
0.0
 41
0.0
 42
0.0
 43
0.0
 44
0.0
 45
0.0
 46
0.0
 47
0.0
 48
0.0
 49
0.0
140
0.0
141
0.0
142
1.0
143
1.0
 70
   688
 72
     0
 73
     0
 74
     5
  7

 75
    16
147
1.0
148
0.0
149
0.0
100
AcDbLayout
  1
Layout2
 70
     1
 71
     2
 10
0.0
 20
0.0
 11
0.0
 21
0.0
 12
0.0
 22
0.0
 32
0.0
 14
0.0
 24
0.0
 34
0.0
 15
0.0
 25
0.0
 35
0.0
146
0.0
 13
0.0
 23
0.0
 33
0.0
 16
1.0
 26
0.0
 36
0.0
 17
0.0
 27
1.0
 37
0.0
 76
     0
330
23
  0
LAYOUT
  5
22
102
{ACAD_REACTORS
330
1A
102
}
330
1A
100
AcDbPlotSettings
  1

  2
none_device
  4
Letter_(8.50_x_11.00_Inches)
  6

 40
6.35
 41
6.35
 42
6.35000508
 43
6.35000508
 44
215.9
 45
279.4
 46
0.0
 47
0.0
 48
0.0
 49
0.0
140
0.0
141
0.0
142
1.0
143
1.0
 70
  1712
 72
     0
 73
     0
 74
     0
  7

 75
     0
147
1.0
148
0.0
149
0.0
100
AcDbLayout
  1
Model
 70
     1
 71
     0
 10
0.0
 20
0.0
 11
11.0
 21
8.5
 12
0.0
 22
0.0
 32
0.0
 14
0.0
 24
0.0
 34
0.0
 15
11.0
 25
8.5
 35
0.0
146
0.0
 13
0.0
 23
0.0
 33
0.0
 16
1.0
 26
0.0
 36
0.0
 17
0.0
 27
1.0
 37
0.0
 76
     0
330
1F
331
29
  0
MLINESTYLE
  5
18
102
{ACAD_REACTORS
330
17
102
}
330
17
100
AcDbMlineStyle
  2
Standard
 70
     0
  3

 62
   256
 51
90.0
 52
90.0
 71
     2
 49
0.5
 62
   256
  6
BYLAYER
 49
-0.5
 62
   256
  6
BYLAYER
  0
ACDBPLACEHOLDER
  5
F
102
{ACAD_REACTORS
330
E
102
}
330
E
  0
SCALE
  5
48
102
{ACAD_REACTORS
330
47
102
}
330
47
100
AcDbScale
 70
     0
300
1:1
140
1.0
141
1.0
290
     1
  0
SCALE
  5
49
102
{ACAD_REACTORS
330
47
102
}
330
47
100
AcDbScale
 70
     0
300
1:2
140
1.0
141
2.0
290
     0
  0
SCALE
  5
4A
102
{ACAD_REACTORS
330
47
102
}
330
47
100
AcDbScale
 70
     0
300
1:4
140
1.0
141
4.0
290
     0
  0
SCALE
  5
4B
102
{ACAD_REACTORS
330
47
102
}
330
47
100
AcDbScale
 70
     0
300
1:5
140
1.0
141
5.0
290
     0
  0
SCALE
  5
4C
102
{ACAD_REACTORS
330
47
102
}
330
47
100
AcDbScale
 70
     0
300
1:8
140
1.0
141
8.0
290
     0
  0
SCALE
  5
4D
102
{ACAD_REACTORS
330
47
102
}
330
47
100
AcDbScale
 70
     0
300
1:10
140
1.0
141
10.0
290
     0
  0
SCALE
  5
4E
102
{ACAD_REACTORS
330
47
102
}
330
47
100
AcDbScale
 70
     0
300
1:16
140
1.0
141
16.0
290
     0
  0
SCALE
  5
4F
102
{ACAD_REACTORS
330
47
102
}
330
47
100
AcDbScale
 70
     0
300
1:20
140
1.0
141
20.0
290
     0
  0
SCALE
  5
50
102
{ACAD_REACTORS
330
47
102
}
330
47
100
AcDbScale
 70
     0
300
1:30
140
1.0
141
30.0
290
     0
  0
SCALE
  5
51
102
{ACAD_REACTORS
330
47
102
}
330
47
100
AcDbScale
 70
     0
300
1:40
140
1.0
141
40.0
290
     0
  0
SCALE
  5
52
102
{ACAD_REACTORS
330
47
102
}
330
47
100
AcDbScale
 70
     0
300
1:50
140
1.0
141
50.0
290
     0
  0
SCALE
  5
53
102
{ACAD_REACTORS
330
47
102
}
330
47
100
AcDbScale
 70
     0
300
1:100
140
1.0
141
100.0
290
     0
  0
SCALE
  5
54
102
{ACAD_REACTORS
330
47
102
}
330
47
100
AcDbScale
 70
     0
300
2:1
140
2.0
141
1.0
290
     0
  0
SCALE
  5
55
102
{ACAD_REACTORS
330
47
102
}
330
47
100
AcDbScale
 70
     0
300
4:1
140
4.0
141
1.0
290
     0
  0
SCALE
  5
56
102
{ACAD_REACTORS
330
47
102
}
330
47
100
AcDbScale
 70
     0
300
8:1
140
8.0
141
1.0
290
     0
  0
SCALE
  5
57
102
{ACAD_REACTORS
330
47
102
}
330
47
100
AcDbScale
 70
     0
300
10:1
140
10.0
141
1.0
290
     0
  0
SCALE
  5
58
102
{ACAD_REACTORS
330
47
102
}
330
47
100
AcDbScale
 70
     0
300
100:1
140
100.0
141
1.0
290
     0
  0
SCALE
  5
59
102
{ACAD_REACTORS
330
47
102
}
330
47
100
AcDbScale
 70
     0
300
1/128" = 1'-0"
140
0.0078125
141
12.0
290
     0
  0
SCALE
  5
5A
102
{ACAD_REACTORS
330
47
102
}
330
47
100
AcDbScale
 70
     0
300
1/64" = 1'-0"
140
0.015625
141
12.0
290
     0
  0
SCALE
  5
5B
102
{ACAD_REACTORS
330
47
102
}
330
47
100
AcDbScale
 70
     0
300
1/32" = 1'-0"
140
0.03125
141
12.0
290
     0
  0
SCALE
  5
5C
102
{ACAD_REACTORS
330
47
102
}
330
47
100
AcDbScale
 70
     0
300
1/16" = 1'-0"
140
0.0625
141
12.0
290
     0
  0
SCALE
  5
5D
102
{ACAD_REACTORS
330
47
102
}
330
47
100
AcDbScale
 70
     0
300
3/32" = 1'-0"
140
0.09375
141
12.0
290
     0
  0
SCALE
  5
5E
102
{ACAD_REACTORS
330
47
102
}
330
47
100
AcDbScale
 70
     0
300
1/8" = 1'-0"
140
0.125
141
12.0
290
     0
  0
SCALE
  5
5F
102
{ACAD_REACTORS
330
47
102
}
330
47
100
AcDbScale
 70
     0
300
3/16" = 1'-0"
140
0.1875
141
12.0
290
     0
  0
SCALE
  5
60
102
{ACAD_REACTORS
330
47
102
}
330
47
100
AcDbScale
 70
     0
300
1/4" = 1'-0"
140
0.25
141
12.0
290
     0
  0
SCALE
  5
61
102
{ACAD_REACTORS
330
47
102
}
330
47
100
AcDbScale
 70
     0
300
3/8" = 1'-0"
140
0.375
141
12.0
290
     0
  0
SCALE
  5
62
102
{ACAD_REACTORS
330
47
102
}
330
47
100
AcDbScale
 70
     0
300
1/2" = 1'-0"
140
0.5
141
12.0
290
     0
  0
SCALE
  5
63
102
{ACAD_REACTORS
330
47
102
}
330
47
100
AcDbScale
 70
     0
300
3/4" = 1'-0"
140
0.75
141
12.0
290
     0
  0
SCALE
  5
64
102
{ACAD_REACTORS
330
47
102
}
330
47
100
AcDbScale
 70
     0
300
1" = 1'-0"
140
1.0
141
12.0
290
     0
  0
SCALE
  5
65
102
{ACAD_REACTORS
330
47
102
}
330
47
100
AcDbScale
 70
     0
300
1-1/2" = 1'-0"
140
1.5
141
12.0
290
     0
  0
SCALE
  5
66
102
{ACAD_REACTORS
330
47
102
}
330
47
100
AcDbScale
 70
     0
300
3" = 1'-0"
140
3.0
141
12.0
290
     0
  0
SCALE
  5
67
102
{ACAD_REACTORS
330
47
102
}
330
47
100
AcDbScale
 70
     0
300
6" = 1'-0"
140
6.0
141
12.0
290
     0
  0
SCALE
  5
68
102
{ACAD_REACTORS
330
47
102
}
330
47
100
AcDbScale
 70
     0
300
1'-0" = 1'-0"
140
12.0
141
12.0
290
     0
  0
ENDSEC
  0
EOF
