  0
SECTION
  2
HEADER
  9
$ACADVER
  1
AC1014
  9
$ACADMAINTVER
 70
     9
  9
$DWGCODEPAGE
  3
ANSI_1252
  9
$INSBASE
 10
0.0
 20
0.0
 30
0.0
  9
$EXTMIN
 10
1.000000000000000E+20
 20
1.000000000000000E+20
 30
1.000000000000000E+20
  9
$EXTMAX
 10
-1.000000000000000E+20
 20
-1.000000000000000E+20
 30
-1.000000000000000E+20
  9
$LIMMIN
 10
0.0
 20
0.0
  9
$LIMMAX
 10
12.0
 20
9.0
  9
$ORTHOMODE
 70
     0
  9
$REGENMODE
 70
     1
  9
$FILLMODE
 70
     1
  9
$QTEXTMODE
 70
     0
  9
$MIRRTEXT
 70
     1
  9
$DRAGMODE
 70
     2
  9
$LTSCALE
 40
1.0
  9
$OSMODE
 70
    37
  9
$ATTMODE
 70
     1
  9
$TEXTSIZE
 40
0.2
  9
$TRACEWID
 40
0.05
  9
$TEXTSTYLE
  7
STANDARD
  9
$CLAYER
  8
0
  9
$CELTYPE
  6
BYLAYER
  9
$CECOLOR
 62
   256
  9
$CELTSCALE
 40
1.0
  9
$DELOBJ
 70
     1
  9
$DISPSILH
 70
     0
  9
$DIMSCALE
 40
1.0
  9
$DIMASZ
 40
0.06
  9
$DIMEXO
 40
0.0625
  9
$DIMDLI
 40
0.38
  9
$DIMRND
 40
0.0
  9
$DIMDLE
 40
0.0
  9
$DIMEXE
 40
0.18
  9
$DIMTP
 40
0.0
  9
$DIMTM
 40
0.0
  9
$DIMTXT
 40
0.0821180555555555
  9
$DIMCEN
 40
0.09
  9
$DIMTSZ
 40
0.0
  9
$DIMTOL
 70
     0
  9
$DIMLIM
 70
     0
  9
$DIMTIH
 70
     1
  9
$DIMTOH
 70
     1
  9
$DIMSE1
 70
     0
  9
$DIMSE2
 70
     0
  9
$DIMTAD
 70
     0
  9
$DIMZIN
 70
     0
  9
$DIMBLK
  1

  9
$DIMASO
 70
     1
  9
$DIMSHO
 70
     1
  9
$DIMPOST
  1

  9
$DIMAPOST
  1

  9
$DIMALT
 70
     0
  9
$DIMALTD
 70
     2
  9
$DIMALTF
 40
25.4
  9
$DIMLFAC
 40
1.0
  9
$DIMTOFL
 70
     0
  9
$DIMTVP
 40
0.0
  9
$DIMTIX
 70
     0
  9
$DIMSOXD
 70
     0
  9
$DIMSAH
 70
     0
  9
$DIMBLK1
  1

  9
$DIMBLK2
  1

  9
$DIMSTYLE
  2
STANDARD
  9
$DIMCLRD
 70
     0
  9
$DIMCLRE
 70
     0
  9
$DIMCLRT
 70
     0
  9
$DIMTFAC
 40
1.0
  9
$DIMGAP
 40
0.09
  9
$DIMJUST
 70
     0
  9
$DIMSD1
 70
     0
  9
$DIMSD2
 70
     0
  9
$DIMTOLJ
 70
     1
  9
$DIMTZIN
 70
     0
  9
$DIMALTZ
 70
     0
  9
$DIMALTTZ
 70
     0
  9
$DIMFIT
 70
     3
  9
$DIMUPT
 70
     0
  9
$DIMUNIT
 70
     2
  9
$DIMDEC
 70
     4
  9
$DIMTDEC
 70
     4
  9
$DIMALTU
 70
     2
  9
$DIMALTTD
 70
     2
  9
$DIMTXSTY
  7
STANDARD
  9
$DIMAUNIT
 70
     0
  9
$LUNITS
 70
     2
  9
$LUPREC
 70
     4
  9
$SKETCHINC
 40
0.1
  9
$FILLETRAD
 40
0.5
  9
$AUNITS
 70
     0
  9
$AUPREC
 70
     0
  9
$MENU
  1
.
  9
$ELEVATION
 40
0.0
  9
$PELEVATION
 40
0.0
  9
$THICKNESS
 40
0.0
  9
$LIMCHECK
 70
     0
  9
$CHAMFERA
 40
0.5
  9
$CHAMFERB
 40
0.5
  9
$CHAMFERC
 40
1.0
  9
$CHAMFERD
 40
0.0
  9
$SKPOLY
 70
     0
  9
$TDCREATE
 40
2456147.726734988
  9
$TDUPDATE
 40
2456147.726735
  9
$TDINDWG
 40
0.0000000116
  9
$TDUSRTIMER
 40
0.0000000116
  9
$USRTIMER
 70
     1
  9
$ANGBASE
 50
0.0
  9
$ANGDIR
 70
     0
  9
$PDMODE
 70
     0
  9
$PDSIZE
 40
0.0
  9
$PLINEWID
 40
0.0
  9
$COORDS
 70
     1
  9
$SPLFRAME
 70
     0
  9
$SPLINETYPE
 70
     6
  9
$SPLINESEGS
 70
     8
  9
$ATTDIA
 70
     0
  9
$ATTREQ
 70
     1
  9
$HANDLING
 70
     1
  9
$HANDSEED
  5
495
  9
$SURFTAB1
 70
     6
  9
$SURFTAB2
 70
     6
  9
$SURFTYPE
 70
     6
  9
$SURFU
 70
     6
  9
$SURFV
 70
     6
  9
$UCSNAME
  2

  9
$UCSORG
 10
0.0
 20
0.0
 30
0.0
  9
$UCSXDIR
 10
1.0
 20
0.0
 30
0.0
  9
$UCSYDIR
 10
0.0
 20
1.0
 30
0.0
  9
$PUCSNAME
  2

  9
$PUCSORG
 10
0.0
 20
0.0
 30
0.0
  9
$PUCSXDIR
 10
1.0
 20
0.0
 30
0.0
  9
$PUCSYDIR
 10
0.0
 20
1.0
 30
0.0
  9
$USERI1
 70
     0
  9
$USERI2
 70
     0
  9
$USERI3
 70
     0
  9
$USERI4
 70
     0
  9
$USERI5
 70
     0
  9
$USERR1
 40
0.0
  9
$USERR2
 40
0.0
  9
$USERR3
 40
0.0
  9
$USERR4
 40
0.0
  9
$USERR5
 40
0.0
  9
$WORLDVIEW
 70
     1
  9
$SHADEDGE
 70
     3
  9
$SHADEDIF
 70
    70
  9
$TILEMODE
 70
     1
  9
$MAXACTVP
 70
    64
  9
$PINSBASE
 10
0.0
 20
0.0
 30
0.0
  9
$PLIMCHECK
 70
     0
  9
$PEXTMIN
 10
1.000000000000000E+20
 20
1.000000000000000E+20
 30
1.000000000000000E+20
  9
$PEXTMAX
 10
-1.000000000000000E+20
 20
-1.000000000000000E+20
 30
-1.000000000000000E+20
  9
$PLIMMIN
 10
0.0
 20
0.0
  9
$PLIMMAX
 10
12.0
 20
9.0
  9
$UNITMODE
 70
     0
  9
$VISRETAIN
 70
     1
  9
$PLINEGEN
 70
     0
  9
$PSLTSCALE
 70
     1
  9
$TREEDEPTH
 70
  3020
  9
$PICKSTYLE
 70
     1
  9
$CMLSTYLE
  2
STANDARD
  9
$CMLJUST
 70
     0
  9
$CMLSCALE
 40
1.0
  9
$PROXYGRAPHICS
 70
     1
  9
$MEASUREMENT
 70
     0
  0
ENDSEC
  0
SECTION
  2
CLASSES
  0
CLASS
  1
ACDBDICTIONARYWDFLT
  2
AcDbDictionaryWithDefault
  3
ObjectDBX Classes
 90
        0
280
     0
281
     0
  0
CLASS
  1
VISUALSTYLE
  2
AcDbVisualStyle
  3
ObjectDBX Classes
 90
     4095
280
     0
281
     0
  0
CLASS
  1
SCALE
  2
AcDbScale
  3
ObjectDBX Classes
 90
     1153
280
     0
281
     0
  0
CLASS
  1
DICTIONARYVAR
  2
AcDbDictionaryVar
  3
ObjectDBX Classes
 90
        0
280
     0
281
     0
  0
CLASS
  1
XRECORD
  2
AcDbXrecord
  3
AutoCAD 2000
 90
        0
280
     0
281
     0
  0
CLASS
  1
LWPOLYLINE
  2
AcDbPolyline
  3
AutoCAD 2000
 90
        0
280
     0
281
     1
  0
CLASS
  1
HATCH
  2
AcDbHatch
  3
AutoCAD 2000
 90
        0
280
     0
281
     1
  0
CLASS
  1
ACDBPLACEHOLDER
  2
AcDbPlaceHolder
  3
ObjectDBX Classes
 90
        0
280
     0
281
     0
  0
CLASS
  1
LAYOUT
  2
AcDbLayout
  3
ObjectDBX Classes
 90
        0
280
     0
281
     0
  0
ENDSEC
  0
SECTION
  2
TABLES
  0
TABLE
  2
VPORT
  5
8
330
0
100
AcDbSymbolTable
 70
     1
  0
VPORT
  5
29
330
8
100
AcDbSymbolTableRecord
100
AcDbViewportTableRecord
  2
*ACTIVE
 70
     0
 10
0.0
 20
0.0
 11
1.0
 21
1.0
 12
10.42990654205607
 22
4.5
 13
0.0
 23
0.0
 14
0.5
 24
0.5
 15
0.5
 25
0.5
 16
0.0
 26
0.0
 36
1.0
 17
0.0
 27
0.0
 37
0.0
 40
9.0
 41
1.972972972850329
 42
50.0
 43
0.0
 44
0.0
 50
0.0
 51
0.0
 71
     0
 72
   100
 73
     1
 74
     3
 75
     0
 76
     0
 77
     0
 78
     0
  0
ENDTAB
  0
TABLE
  2
LTYPE
  5
5
330
0
100
AcDbSymbolTable
 70
     1
  0
LTYPE
  5
14
330
5
100
AcDbSymbolTableRecord
100
AcDbLinetypeTableRecord
  2
BYBLOCK
 70
     0
  3

 72
    65
 73
     0
 40
0.0
  0
LTYPE
  5
15
330
5
100
AcDbSymbolTableRecord
100
AcDbLinetypeTableRecord
  2
BYLAYER
 70
     0
  3

 72
    65
 73
     0
 40
0.0
  0
LTYPE
  5
16
330
5
100
AcDbSymbolTableRecord
100
AcDbLinetypeTableRecord
  2
CONTINUOUS
 70
     0
  3
Solid line
 72
    65
 73
     0
 40
0.0
  0
ENDTAB
  0
TABLE
  2
LAYER
  5
2
330
0
100
AcDbSymbolTable
 70
     3
  0
LAYER
  5
10
330
2
100
AcDbSymbolTableRecord
100
AcDbLayerTableRecord
  2
0
 70
     0
 62
     7
  6
CONTINUOUS
  0
LAYER
  5
5D
330
2
100
AcDbSymbolTableRecord
100
AcDbLayerTableRecord
  2
VISIBLE
 70
     0
 62
     7
  6
CONTINUOUS
  0
LAYER
  5
82
330
2
100
AcDbSymbolTableRecord
100
AcDbLayerTableRecord
  2
TANGENT_EDGES
 70
     0
 62
     7
  6
CONTINUOUS
  0
ENDTAB
  0
TABLE
  2
STYLE
  5
3
330
0
100
AcDbSymbolTable
 70
     1
  0
STYLE
  5
11
330
3
100
AcDbSymbolTableRecord
100
AcDbTextStyleTableRecord
  2
STANDARD
 70
     0
 40
0.125
 41
1.0
 50
0.0
 71
     0
 42
0.2
  3
txt
  4

1001
ACAD
1000
Arial
1071
        0
  0
ENDTAB
  0
TABLE
  2
VIEW
  5
6
330
0
100
AcDbSymbolTable
 70
     0
  0
ENDTAB
  0
TABLE
  2
UCS
  5
7
330
0
100
AcDbSymbolTable
 70
     0
  0
ENDTAB
  0
TABLE
  2
APPID
  5
9
330
0
100
AcDbSymbolTable
 70
     1
  0
APPID
  5
12
330
9
100
AcDbSymbolTableRecord
100
AcDbRegAppTableRecord
  2
ACAD
 70
     0
  0
ENDTAB
  0
TABLE
  2
DIMSTYLE
  5
A
330
0
100
AcDbSymbolTable
 70
     1
  0
DIMSTYLE
105
27
330
A
100
AcDbSymbolTableRecord
100
AcDbDimStyleTableRecord
  2
STANDARD
 70
     0
  3

  4

  5

  6

  7

 40
1.0
 41
0.18
 42
0.0625
 43
0.38
 44
0.18
 45
0.0
 46
0.0
 47
0.0
 48
0.0
140
0.18
141
0.09
142
0.0
143
25.4
144
1.0
145
0.0
146
1.0
147
0.09
 71
     0
 72
     0
 73
     1
 74
     1
 75
     0
 76
     0
 77
     0
 78
     0
170
     0
171
     2
172
     0
173
     0
174
     0
175
     0
176
     0
177
     0
178
     0
270
     2
271
     4
272
     4
273
     2
274
     2
340
11
275
     0
280
     0
281
     0
282
     0
283
     1
284
     0
285
     0
286
     0
287
     3
288
     0
  0
ENDTAB
  0
TABLE
  2
BLOCK_RECORD
  5
1
330
0
100
AcDbSymbolTable
 70
     1
  0
BLOCK_RECORD
  5
1F
330
1
100
AcDbSymbolTableRecord
100
AcDbBlockTableRecord
  2
*MODEL_SPACE
  0
BLOCK_RECORD
  5
1B
330
1
100
AcDbSymbolTableRecord
100
AcDbBlockTableRecord
  2
*PAPER_SPACE
  0
ENDTAB
  0
ENDSEC
  0
SECTION
  2
BLOCKS
  0
BLOCK
  5
20
330
1F
100
AcDbEntity
  8
0
100
AcDbBlockBegin
  2
*MODEL_SPACE
 70
     0
 10
0.0
 20
0.0
 30
0.0
  3
*MODEL_SPACE
  1

  0
ENDBLK
  5
21
330
1F
100
AcDbEntity
  8
0
100
AcDbBlockEnd
  0
BLOCK
  5
1C
330
1B
100
AcDbEntity
 67
     1
  8
0
100
AcDbBlockBegin
  2
*PAPER_SPACE
 70
     0
 10
0.0
 20
0.0
 30
0.0
  3
*PAPER_SPACE
  1

  0
ENDBLK
  5
1D
330
1B
100
AcDbEntity
 67
     1
  8
0
100
AcDbBlockEnd
  0
ENDSEC
  0
SECTION
  2
ENTITIES
  0
ARC
  5
5E
330
1F
100
AcDbEntity
  8
VISIBLE
100
AcDbCircle
 10
4.359156883120388
 20
5.314229501960965
 30
0.0
 40
0.0178571428571466
100
AcDbArc
 50
359.9969844326535
 51
30.97835030846506
  0
ARC
  5
5F
330
1F
100
AcDbEntity
  8
VISIBLE
100
AcDbCircle
 10
4.359085454548956
 20
3.957086646697796
 30
0.0
 40
0.0178571428571466
100
AcDbArc
 50
359.9969844326677
 51
150.2270518685402
  0
ARC
  5
60
330
1F
100
AcDbEntity
  8
VISIBLE
100
AcDbCircle
 10
4.359156883120388
 20
5.27851521624668
 30
0.0
 40
0.0267857142857145
100
AcDbArc
 50
234.4556230538002
 51
48.19206372063589
  0
LINE
  5
61
330
1F
100
AcDbEntity
  8
VISIBLE
100
AcDbLine
 10
4.377014025952803
 20
5.314228562111337
 30
0.0
 11
4.377013197125856
 21
5.298480850219436
 31
0.0
  0
ARC
  5
62
330
1F
100
AcDbEntity
  8
VISIBLE
100
AcDbCircle
 10
4.359085454548956
 20
3.92137236098351
 30
0.0
 40
0.0267857142857152
100
AcDbArc
 50
344.6164812412909
 51
48.19206372063258
  0
LINE
  5
63
330
1F
100
AcDbEntity
  8
VISIBLE
100
AcDbLine
 10
4.376942597381364
 20
3.957085706848172
 30
0.0
 11
4.376941768554424
 21
3.941337994956266
 31
0.0
  0
CIRCLE
  5
64
330
1F
100
AcDbEntity
  8
VISIBLE
100
AcDbCircle
 10
6.069371168834682
 20
5.102992697117949
 30
0.0
 40
0.1918071461652433
  0
CIRCLE
  5
65
330
1F
100
AcDbEntity
  8
VISIBLE
100
AcDbCircle
 10
6.069371168834682
 20
5.102992697117949
 30
0.0
 40
0.2857142857142865
  0
CIRCLE
  5
66
330
1F
100
AcDbEntity
  8
VISIBLE
100
AcDbCircle
 10
6.068696865197713
 20
4.860136490379599
 30
0.0
 40
0.0135000000000005
  0
CIRCLE
  5
67
330
1F
100
AcDbEntity
  8
VISIBLE
100
AcDbCircle
 10
6.279889566707102
 20
5.224077774621183
 30
0.0
 40
0.0135000000000005
  0
CIRCLE
  5
68
330
1F
100
AcDbEntity
  8
VISIBLE
100
AcDbCircle
 10
5.859318912085969
 20
5.224884621672069
 30
0.0
 40
0.0134999999999996
  0
LINE
  5
69
330
1F
100
AcDbEntity
  8
VISIBLE
100
AcDbLine
 10
6.455656883120398
 20
3.773158075269215
 30
0.0
 11
6.455656883120398
 21
3.760515218126358
 31
0.0
  0
LINE
  5
6A
330
1F
100
AcDbEntity
  8
VISIBLE
100
AcDbLine
 10
4.343585454548971
 20
5.244013482703477
 30
0.0
 11
4.343585454548971
 21
5.299874096406383
 31
0.0
  0
ARC
  5
6B
330
1F
100
AcDbEntity
  8
VISIBLE
100
AcDbCircle
 10
4.389299740263256
 20
3.967658075269215
 30
0.0
 40
0.0535714285714283
100
AcDbArc
 50
31.4239064858461
 51
148.5760935141544
  0
LINE
  5
6C
330
1F
100
AcDbEntity
  8
VISIBLE
100
AcDbLine
 10
6.455656883120399
 20
5.46644378955493
 30
0.0
 11
6.455656883120399
 21
5.479086646697787
 31
0.0
  0
LINE
  5
6D
330
1F
100
AcDbEntity
  8
VISIBLE
100
AcDbLine
 10
4.435014025977542
 20
5.299874096406383
 30
0.0
 11
4.435014025977542
 21
5.244013482703477
 31
0.0
  0
LINE
  5
6E
330
1F
100
AcDbEntity
  8
VISIBLE
100
AcDbLine
 10
6.455656883120399
 20
5.479086646697787
 30
0.0
 11
4.178371168834685
 21
5.479086646697787
 31
0.0
  0
LINE
  5
6F
330
1F
100
AcDbEntity
  8
VISIBLE
100
AcDbLine
 10
4.435014025977542
 20
3.995588382120669
 30
0.0
 11
4.435014025977542
 21
3.939727768417762
 31
0.0
  0
LINE
  5
70
330
1F
100
AcDbEntity
  8
VISIBLE
100
AcDbLine
 10
4.178371168834685
 20
5.46644378955493
 30
0.0
 11
4.178371168834685
 21
5.479086646697787
 31
0.0
  0
ARC
  5
71
330
1F
100
AcDbEntity
  8
VISIBLE
100
AcDbCircle
 10
4.389299740263256
 20
3.967658075269215
 30
0.0
 40
0.0535714285714291
100
AcDbArc
 50
211.4239064858456
 51
328.5760935141539
  0
LINE
  5
72
330
1F
100
AcDbEntity
  8
VISIBLE
100
AcDbLine
 10
6.455656883120399
 20
5.46644378955493
 30
0.0
 11
6.455656883120398
 21
3.773158075269215
 31
0.0
  0
LINE
  5
73
330
1F
100
AcDbEntity
  8
VISIBLE
100
AcDbLine
 10
4.34358545454897
 20
3.939727768417762
 30
0.0
 11
4.34358545454897
 21
3.995588382120669
 31
0.0
  0
ARC
  5
74
330
1F
100
AcDbEntity
  8
VISIBLE
100
AcDbCircle
 10
4.389299740263256
 20
5.27194378955493
 30
0.0
 40
0.0535714285714283
100
AcDbArc
 50
31.4239064858461
 51
148.5760935141539
  0
LINE
  5
75
330
1F
100
AcDbEntity
  8
VISIBLE
100
AcDbLine
 10
4.178371168834684
 20
3.760515218126358
 30
0.0
 11
6.455656883120398
 21
3.760515218126358
 31
0.0
  0
LINE
  5
76
330
1F
100
AcDbEntity
  8
VISIBLE
100
AcDbLine
 10
4.178371168834684
 20
3.773158075269215
 30
0.0
 11
4.178371168834684
 21
3.760515218126359
 31
0.0
  0
LINE
  5
77
330
1F
100
AcDbEntity
  8
VISIBLE
100
AcDbLine
 10
4.165728311691828
 20
5.46644378955493
 30
0.0
 11
4.165728311691828
 21
3.773158075269215
 31
0.0
  0
LINE
  5
78
330
1F
100
AcDbEntity
  8
VISIBLE
100
AcDbLine
 10
4.165728311691828
 20
5.46644378955493
 30
0.0
 11
4.178371168834685
 21
5.46644378955493
 31
0.0
  0
ARC
  5
79
330
1F
100
AcDbEntity
  8
VISIBLE
100
AcDbCircle
 10
4.389299740263256
 20
5.27194378955493
 30
0.0
 40
0.0535714285714283
100
AcDbArc
 50
211.4239064858461
 51
328.5760935141539
  0
LINE
  5
7A
330
1F
100
AcDbEntity
  8
VISIBLE
100
AcDbLine
 10
4.178371168834684
 20
3.773158075269215
 30
0.0
 11
4.165728311691828
 21
3.773158075269215
 31
0.0
  0
LINE
  5
7B
330
1F
100
AcDbEntity
  8
VISIBLE
100
AcDbLine
 10
6.455656883120403
 20
3.783658075269213
 30
0.0
 11
6.465085454548974
 21
3.783658075269213
 31
0.0
  0
LINE
  5
7C
330
1F
100
AcDbEntity
  8
VISIBLE
100
AcDbLine
 10
6.465085454548979
 20
5.447943789554927
 30
0.0
 11
6.482656883120407
 21
5.447943789554927
 31
0.0
  0
LINE
  5
7D
330
1F
100
AcDbEntity
  8
VISIBLE
100
AcDbLine
 10
6.465085454548979
 20
5.447943789554927
 30
0.0
 11
6.455656883120403
 21
5.447943789554927
 31
0.0
  0
LINE
  5
7E
330
1F
100
AcDbEntity
  8
VISIBLE
100
AcDbLine
 10
6.482656883120402
 20
3.783658075269213
 30
0.0
 11
6.465085454548973
 21
3.783658075269213
 31
0.0
  0
LINE
  5
7F
330
1F
100
AcDbEntity
  8
VISIBLE
100
AcDbLine
 10
6.482656883120405
 20
5.447943789554929
 30
0.0
 11
6.482656883120399
 21
3.783658075269214
 31
0.0
  0
CIRCLE
  5
80
330
1F
100
AcDbEntity
  8
VISIBLE
100
AcDbCircle
 10
6.069371168834683
 20
4.63870698283224
 30
0.0
 40
0.0758377107399308
  0
CIRCLE
  5
81
330
1F
100
AcDbEntity
  8
VISIBLE
100
AcDbCircle
 10
6.069371168834683
 20
4.63870698283224
 30
0.0
 40
0.0833571428571425
  0
CIRCLE
  5
83
330
1F
100
AcDbEntity
  8
TANGENT_EDGES
100
AcDbCircle
 10
6.068696865197713
 20
4.8601364903796
 30
0.0
 40
0.0175714285714283
  0
CIRCLE
  5
84
330
1F
100
AcDbEntity
  8
TANGENT_EDGES
100
AcDbCircle
 10
6.279889566707102
 20
5.224077774621184
 30
0.0
 40
0.0175714285714292
  0
CIRCLE
  5
85
330
1F
100
AcDbEntity
  8
TANGENT_EDGES
100
AcDbCircle
 10
5.859318912085969
 20
5.224884621672069
 30
0.0
 40
0.0175714285714283
  0
LINE
  5
86
330
1F
100
AcDbEntity
  8
TANGENT_EDGES
100
AcDbLine
 10
4.178371168834685
 20
5.46644378955493
 30
0.0
 11
6.455656883120399
 21
5.46644378955493
 31
0.0
  0
LINE
  5
87
330
1F
100
AcDbEntity
  8
TANGENT_EDGES
100
AcDbLine
 10
4.178371168834684
 20
3.773158075269215
 30
0.0
 11
4.178371168834685
 21
5.46644378955493
 31
0.0
  0
LINE
  5
88
330
1F
100
AcDbEntity
  8
TANGENT_EDGES
100
AcDbLine
 10
6.455656883120398
 20
3.773158075269215
 30
0.0
 11
4.178371168834684
 21
3.773158075269215
 31
0.0
  0
LINE
  5
89
330
1F
100
AcDbEntity
  8
TANGENT_EDGES
100
AcDbLine
 10
6.465085454548979
 20
5.447943789554927
 30
0.0
 11
6.465085454548973
 21
3.783658075269213
 31
0.0
  0
ARC
  5
8A
330
1F
100
AcDbEntity
  8
VISIBLE
100
AcDbCircle
 10
4.203871168834682
 20
7.520448426391463
 30
0.0
 40
0.0126428571428576
100
AcDbArc
 50
90.0
 51
179.999999999996
  0
LINE
  5
8B
330
1F
100
AcDbEntity
  8
VISIBLE
100
AcDbLine
 10
6.45565688312041
 20
6.36287699782002
 30
0.0
 11
6.45565688312041
 21
7.520448426391473
 31
0.0
  0
LINE
  5
8C
330
1F
100
AcDbEntity
  8
VISIBLE
100
AcDbLine
 10
6.443014025977554
 20
7.533091283534329
 30
0.0
 11
4.203871168834682
 21
7.533091283534321
 31
0.0
  0
LINE
  5
8D
330
1F
100
AcDbEntity
  8
VISIBLE
100
AcDbLine
 10
6.443014025977554
 20
7.520448426391472
 30
0.0
 11
6.443014025977554
 21
7.533091283534329
 31
0.0
  0
LINE
  5
8E
330
1F
100
AcDbEntity
  8
VISIBLE
100
AcDbLine
 10
4.199656883120412
 20
6.398591283534322
 30
0.0
 11
4.199656883120396
 21
7.520448426391464
 31
0.0
  0
LINE
  5
8F
330
1F
100
AcDbEntity
  8
VISIBLE
100
AcDbLine
 10
6.443014025977554
 20
7.520448426391474
 30
0.0
 11
6.443014025977558
 21
6.39013904814194
 31
0.0
  0
ARC
  5
90
330
1F
100
AcDbEntity
  8
VISIBLE
100
AcDbCircle
 10
4.203871168834692
 20
7.52044842639145
 30
0.0
 40
0.0042142857142995
100
AcDbArc
 50
90.00000000014491
 51
179.9999999998068
  0
LINE
  5
91
330
1F
100
AcDbEntity
  8
VISIBLE
100
AcDbLine
 10
4.203871168834682
 20
7.533091283534321
 30
0.0
 11
4.203871168834682
 21
7.520448426391464
 31
0.0
  0
ARC
  5
92
330
1F
100
AcDbEntity
  8
VISIBLE
100
AcDbCircle
 10
6.443014025977554
 20
7.520448426391472
 30
0.0
 40
0.0126428571428558
100
AcDbArc
 50
359.999999999996
 51
90.0
  0
LINE
  5
93
330
1F
100
AcDbEntity
  8
VISIBLE
100
AcDbLine
 10
6.447228311691839
 20
7.520448426391473
 30
0.0
 11
6.447228311691839
 21
6.385920435063625
 31
0.0
  0
ARC
  5
94
330
1F
100
AcDbEntity
  8
VISIBLE
100
AcDbCircle
 10
6.443014025977553
 20
7.520448426391472
 30
0.0
 40
0.0042142857142862
100
AcDbArc
 50
0.0
 51
89.99999999998793
  0
LINE
  5
95
330
1F
100
AcDbEntity
  8
VISIBLE
100
AcDbLine
 10
4.203871168834684
 20
6.398591283534322
 30
0.0
 11
4.203871168834682
 21
7.520448426391465
 31
0.0
  0
LINE
  5
96
330
1F
100
AcDbEntity
  8
VISIBLE
100
AcDbLine
 10
4.191228311691824
 20
7.520448426391465
 30
0.0
 11
4.19122831169184
 21
6.398591283534323
 31
0.0
  0
LINE
  5
97
330
1F
100
AcDbEntity
  8
VISIBLE
100
AcDbLine
 10
6.35508545454897
 20
6.211591283534318
 30
0.0
 11
6.3550853570451
 21
6.211591283534318
 31
0.0
  0
LINE
  5
98
330
1F
100
AcDbEntity
  8
VISIBLE
100
AcDbLine
 10
6.3550853570451
 20
6.211591283534318
 30
0.0
 11
5.783656883120397
 21
6.211591283534321
 31
0.0
  0
LINE
  5
99
330
1F
100
AcDbEntity
  8
VISIBLE
100
AcDbLine
 10
6.35508545454897
 20
6.211591283534316
 30
0.0
 11
6.35508545454897
 21
6.247305569248603
 31
0.0
  0
LINE
  5
9A
330
1F
100
AcDbEntity
  8
VISIBLE
100
AcDbLine
 10
5.783656883120399
 20
6.21159128353432
 30
0.0
 11
5.783656883120399
 21
6.247305569248606
 31
0.0
  0
LINE
  5
9B
330
1F
100
AcDbEntity
  8
VISIBLE
100
AcDbLine
 10
6.212773433016005
 20
6.211591283534318
 30
0.0
 11
5.783656883120401
 21
6.211591283534322
 31
0.0
  0
LINE
  5
9C
330
1F
100
AcDbEntity
  8
VISIBLE
100
AcDbLine
 10
6.355085454548973
 20
6.211591283534317
 30
0.0
 11
6.212773433016005
 21
6.211591283534318
 31
0.0
  0
LINE
  5
9D
330
1F
100
AcDbEntity
  8
VISIBLE
100
AcDbLine
 10
6.355085454548973
 20
6.200876997820031
 30
0.0
 11
6.212773433016005
 21
6.200876997820032
 31
0.0
  0
LINE
  5
9E
330
1F
100
AcDbEntity
  8
VISIBLE
100
AcDbLine
 10
5.783656883120401
 20
6.200876997820036
 30
0.0
 11
6.212773433016005
 21
6.200876997820032
 31
0.0
  0
LINE
  5
9F
330
1F
100
AcDbEntity
  8
VISIBLE
100
AcDbLine
 10
6.35508545454897
 20
6.211591283534316
 30
0.0
 11
6.35508545454897
 21
6.20087699782003
 31
0.0
  0
LINE
  5
A0
330
1F
100
AcDbEntity
  8
VISIBLE
100
AcDbLine
 10
5.783656883120399
 20
6.211591283534322
 30
0.0
 11
5.783656883120399
 21
6.200876997820036
 31
0.0
  0
LINE
  5
A1
330
1F
100
AcDbEntity
  8
VISIBLE
100
AcDbLine
 10
4.178371168834685
 20
6.247305569248619
 30
0.0
 11
6.455656883120399
 21
6.247305569248603
 31
0.0
  0
LINE
  5
A2
330
1F
100
AcDbEntity
  8
VISIBLE
100
AcDbLine
 10
6.455656883120399
 20
6.247305569248603
 30
0.0
 11
6.455656883120399
 21
6.25994842639146
 31
0.0
  0
LINE
  5
A3
330
1F
100
AcDbEntity
  8
VISIBLE
100
AcDbLine
 10
4.178371168834685
 20
6.247305569248619
 30
0.0
 11
4.178371168834685
 21
6.259948426391476
 31
0.0
  0
LINE
  5
A4
330
1F
100
AcDbEntity
  8
VISIBLE
100
AcDbLine
 10
4.178371168834685
 20
6.259948426391476
 30
0.0
 11
4.178371168834686
 21
6.398591283534333
 31
0.0
  0
LINE
  5
A5
330
1F
100
AcDbEntity
  8
VISIBLE
100
AcDbLine
 10
4.178371168834686
 20
6.398591283534333
 30
0.0
 11
6.419942597406116
 21
6.398591283534317
 31
0.0
  0
ARC
  5
A6
330
1F
100
AcDbEntity
  8
VISIBLE
100
AcDbCircle
 10
4.178371168834682
 20
6.259948426391473
 30
0.0
 40
0.0042142857142817
100
AcDbArc
 50
179.9999999999517
 51
270.0000000000483
  0
LINE
  5
A7
330
1F
100
AcDbEntity
  8
VISIBLE
100
AcDbLine
 10
4.174156883120402
 20
6.398591283534333
 30
0.0
 11
4.16572831169183
 21
6.398591283534333
 31
0.0
  0
ARC
  5
A8
330
1F
100
AcDbEntity
  8
VISIBLE
100
AcDbCircle
 10
6.419942597406115
 20
6.362876997820031
 30
0.0
 40
0.0357142857142865
100
AcDbArc
 50
0.0
 51
89.99999999999856
  0
ARC
  5
A9
330
1F
100
AcDbEntity
  8
VISIBLE
100
AcDbCircle
 10
4.178371168834685
 20
6.259948426391476
 30
0.0
 40
0.0126428571428567
100
AcDbArc
 50
180.0
 51
270.0
  0
LINE
  5
AA
330
1F
100
AcDbEntity
  8
VISIBLE
100
AcDbLine
 10
4.16572831169183
 20
6.398591283534333
 30
0.0
 11
4.165728311691828
 21
6.259948426391476
 31
0.0
  0
LINE
  5
AB
330
1F
100
AcDbEntity
  8
VISIBLE
100
AcDbLine
 10
6.455656883120401
 20
6.362876997820031
 30
0.0
 11
6.455656883120399
 21
6.25994842639146
 31
0.0
  0
LINE
  5
AC
330
1F
100
AcDbEntity
  8
VISIBLE
100
AcDbLine
 10
4.1741568831204
 20
6.259948426391476
 30
0.0
 11
4.174156883120402
 21
6.398591283534333
 31
0.0
  0
CIRCLE
  5
AD
330
1F
100
AcDbEntity
  8
VISIBLE
100
AcDbCircle
 10
6.46508545454897
 20
6.273305569248603
 30
0.0
 40
0.0089285714285721
  0
ARC
  5
AE
330
1F
100
AcDbEntity
  8
VISIBLE
100
AcDbCircle
 10
6.46508545454897
 20
6.273305569248603
 30
0.0
 40
0.0175714285714283
100
AcDbArc
 50
270.0
 51
90.0
  0
LINE
  5
AF
330
1F
100
AcDbEntity
  8
VISIBLE
100
AcDbLine
 10
6.46508545454897
 20
6.255734140677174
 30
0.0
 11
6.455656883120394
 21
6.255734140677174
 31
0.0
  0
LINE
  5
B0
330
1F
100
AcDbEntity
  8
VISIBLE
100
AcDbLine
 10
6.455656883120394
 20
6.290876997820032
 30
0.0
 11
6.46508545454897
 21
6.290876997820032
 31
0.0
  0
LINE
  5
B1
330
1F
100
AcDbEntity
  8
VISIBLE
100
AcDbLine
 10
5.986014025977543
 20
6.175162712105744
 30
0.0
 11
6.152728311691828
 21
6.175162712105743
 31
0.0
  0
LINE
  5
B2
330
1F
100
AcDbEntity
  8
VISIBLE
100
AcDbLine
 10
6.152728311691826
 20
6.200876997820032
 30
0.0
 11
6.152728311691825
 21
6.175162712105744
 31
0.0
  0
LINE
  5
B3
330
1F
100
AcDbEntity
  8
VISIBLE
100
AcDbLine
 10
5.98601402597754
 20
6.200876997820034
 30
0.0
 11
5.986014025977539
 21
6.175162712105744
 31
0.0
  0
LINE
  5
B4
330
1F
100
AcDbEntity
  8
TANGENT_EDGES
100
AcDbLine
 10
4.203871168834682
 20
7.520448426391464
 30
0.0
 11
6.443014025977554
 21
7.520448426391472
 31
0.0
  0
LINE
  5
B5
330
1F
100
AcDbEntity
  8
TANGENT_EDGES
100
AcDbLine
 10
6.455656883120399
 20
6.25994842639146
 30
0.0
 11
4.178371168834685
 21
6.259948426391476
 31
0.0
  0
LINE
  5
B6
330
1F
100
AcDbEntity
  8
VISIBLE
100
AcDbLine
 10
7.320507912016815
 20
4.49480093241208
 30
0.0
 11
7.634793626302532
 21
4.49480093241208
 31
0.0
  0
LINE
  5
B7
330
1F
100
AcDbEntity
  8
VISIBLE
100
AcDbLine
 10
7.320507912016814
 20
4.059086646697791
 30
0.0
 11
7.320507912016814
 21
4.066229503840649
 31
0.0
  0
LINE
  5
B8
330
1F
100
AcDbEntity
  8
VISIBLE
100
AcDbLine
 10
7.320507912016815
 20
4.273372360983507
 30
0.0
 11
7.320507912016815
 21
4.280515218126364
 31
0.0
  0
ARC
  5
B9
330
1F
100
AcDbEntity
  8
VISIBLE
100
AcDbCircle
 10
7.069507912016809
 20
5.449586646697815
 30
0.0
 40
0.0042142857142675
100
AcDbArc
 50
89.99999999977057
 51
180.0000000002536
  0
LINE
  5
BA
330
1F
100
AcDbEntity
  8
VISIBLE
100
AcDbLine
 10
8.05622219773111
 20
4.059086646697792
 30
0.0
 11
7.741936483445393
 21
4.059086646697792
 31
0.0
  0
LINE
  5
BB
330
1F
100
AcDbEntity
  8
VISIBLE
100
AcDbLine
 10
7.069507912016824
 20
3.773372360983508
 30
0.0
 11
8.286436483445403
 21
3.773372360983504
 31
0.0
  0
LINE
  5
BC
330
1F
100
AcDbEntity
  8
VISIBLE
100
AcDbLine
 10
7.069507912016825
 20
5.453800932412083
 30
0.0
 11
8.286436483445405
 21
5.453800932412086
 31
0.0
  0
LINE
  5
BD
330
1F
100
AcDbEntity
  8
VISIBLE
100
AcDbLine
 10
7.069507912016825
 20
5.449586646697801
 30
0.0
 11
8.286436483445405
 21
5.449586646697801
 31
0.0
  0
ARC
  5
BE
330
1F
100
AcDbEntity
  8
VISIBLE
100
AcDbCircle
 10
8.286436483445403
 20
3.786015218126361
 30
0.0
 40
0.0126428571428572
100
AcDbArc
 50
270.0
 51
0.0
  0
LINE
  5
BF
330
1F
100
AcDbEntity
  8
VISIBLE
100
AcDbLine
 10
8.05622219773111
 20
4.487658075269223
 30
0.0
 11
7.741936483445393
 21
4.487658075269223
 31
0.0
  0
ARC
  5
C0
330
1F
100
AcDbEntity
  8
VISIBLE
100
AcDbCircle
 10
8.286436483445405
 20
5.4495866466978
 30
0.0
 40
0.0126428571428576
100
AcDbArc
 50
0.0000000000040251
 51
90.0
  0
LINE
  5
C1
330
1F
100
AcDbEntity
  8
VISIBLE
100
AcDbLine
 10
7.634793626302531
 20
4.273372360983507
 30
0.0
 11
7.320507912016815
 21
4.273372360983507
 31
0.0
  0
LINE
  5
C2
330
1F
100
AcDbEntity
  8
VISIBLE
100
AcDbLine
 10
7.634793626302532
 20
4.49480093241208
 30
0.0
 11
7.634793626302532
 21
4.487658075269223
 31
0.0
  0
ARC
  5
C3
330
1F
100
AcDbEntity
  8
VISIBLE
100
AcDbCircle
 10
8.286436483445403
 20
3.786015218126361
 30
0.0
 40
0.0042142857142857
100
AcDbArc
 50
270.0
 51
0.0
  0
LINE
  5
C4
330
1F
100
AcDbEntity
  8
VISIBLE
100
AcDbLine
 10
8.286436483445405
 20
5.462229503840658
 30
0.0
 11
7.069507912016825
 21
5.462229503840653
 31
0.0
  0
LINE
  5
C5
330
1F
100
AcDbEntity
  8
VISIBLE
100
AcDbLine
 10
8.286436483445403
 20
3.786015218126361
 30
0.0
 11
7.069507912016824
 21
3.786015218126361
 31
0.0
  0
ARC
  5
C6
330
1F
100
AcDbEntity
  8
VISIBLE
100
AcDbCircle
 10
7.069507912016824
 20
5.449586646697797
 30
0.0
 40
0.0126428571428576
100
AcDbArc
 50
89.99999999999598
 51
180.0
  0
LINE
  5
C7
330
1F
100
AcDbEntity
  8
VISIBLE
100
AcDbLine
 10
7.741936483445393
 20
4.273372360983507
 30
0.0
 11
7.741936483445393
 21
4.280515218126364
 31
0.0
  0
LINE
  5
C8
330
1F
100
AcDbEntity
  8
VISIBLE
100
AcDbLine
 10
7.056865054873968
 20
5.449586646697801
 30
0.0
 11
7.069507912016825
 21
5.449586646697801
 31
0.0
  0
LINE
  5
C9
330
1F
100
AcDbEntity
  8
VISIBLE
100
AcDbLine
 10
7.320507912016815
 20
4.487658075269223
 30
0.0
 11
7.320507912016815
 21
4.49480093241208
 31
0.0
  0
LINE
  5
CA
330
1F
100
AcDbEntity
  8
VISIBLE
100
AcDbLine
 10
7.320507912016814
 20
4.066229503840649
 30
0.0
 11
7.634793626302531
 21
4.066229503840649
 31
0.0
  0
LINE
  5
CB
330
1F
100
AcDbEntity
  8
VISIBLE
100
AcDbLine
 10
7.634793626302531
 20
4.059086646697792
 30
0.0
 11
7.320507912016814
 21
4.059086646697791
 31
0.0
  0
LINE
  5
CC
330
1F
100
AcDbEntity
  8
VISIBLE
100
AcDbLine
 10
7.741936483445393
 20
4.280515218126364
 30
0.0
 11
8.05622219773111
 21
4.280515218126364
 31
0.0
  0
LINE
  5
CD
330
1F
100
AcDbEntity
  8
VISIBLE
100
AcDbLine
 10
8.05622219773111
 20
4.066229503840649
 30
0.0
 11
8.05622219773111
 21
4.059086646697791
 31
0.0
  0
LINE
  5
CE
330
1F
100
AcDbEntity
  8
VISIBLE
100
AcDbLine
 10
7.634793626302531
 20
4.280515218126364
 30
0.0
 11
7.634793626302531
 21
4.273372360983507
 31
0.0
  0
ARC
  5
CF
330
1F
100
AcDbEntity
  8
VISIBLE
100
AcDbCircle
 10
7.069507912016845
 20
3.786015218126384
 30
0.0
 40
0.0042142857143075
100
AcDbArc
 50
180.0000000002536
 51
269.9999999997223
  0
LINE
  5
D0
330
1F
100
AcDbEntity
  8
VISIBLE
100
AcDbLine
 10
8.05622219773111
 20
4.49480093241208
 30
0.0
 11
8.05622219773111
 21
4.487658075269223
 31
0.0
  0
LINE
  5
D1
330
1F
100
AcDbEntity
  8
VISIBLE
100
AcDbLine
 10
8.286436483445405
 20
5.449586646697801
 30
0.0
 11
8.299079340588262
 21
5.449586646697801
 31
0.0
  0
LINE
  5
D2
330
1F
100
AcDbEntity
  8
VISIBLE
100
AcDbLine
 10
8.29907934058826
 20
3.786015218126361
 30
0.0
 11
8.286436483445403
 21
3.786015218126361
 31
0.0
  0
LINE
  5
D3
330
1F
100
AcDbEntity
  8
VISIBLE
100
AcDbLine
 10
7.056865054873967
 20
5.449586646697799
 30
0.0
 11
7.056865054873967
 21
5.447943789554942
 31
0.0
  0
LINE
  5
D4
330
1F
100
AcDbEntity
  8
VISIBLE
100
AcDbLine
 10
7.634793626302531
 20
4.066229503840649
 30
0.0
 11
7.634793626302531
 21
4.059086646697791
 31
0.0
  0
ARC
  5
D5
330
1F
100
AcDbEntity
  8
VISIBLE
100
AcDbCircle
 10
8.286436483445401
 20
5.449586646697798
 30
0.0
 40
0.0042142857142888
100
AcDbArc
 50
0.0000000000483013
 51
89.99999999995171
  0
LINE
  5
D6
330
1F
100
AcDbEntity
  8
VISIBLE
100
AcDbLine
 10
8.29907934058826
 20
3.786015218126361
 30
0.0
 11
8.299079340588262
 21
5.449586646697801
 31
0.0
  0
ARC
  5
D7
330
1F
100
AcDbEntity
  8
VISIBLE
100
AcDbCircle
 10
7.069507912016824
 20
3.786015218126366
 30
0.0
 40
0.0126428571428576
100
AcDbArc
 50
180.0
 51
270.0
  0
LINE
  5
D8
330
1F
100
AcDbEntity
  8
VISIBLE
100
AcDbLine
 10
7.741936483445393
 20
4.487658075269223
 30
0.0
 11
7.741936483445393
 21
4.49480093241208
 31
0.0
  0
LINE
  5
D9
330
1F
100
AcDbEntity
  8
VISIBLE
100
AcDbLine
 10
7.741936483445393
 20
4.059086646697791
 30
0.0
 11
7.741936483445393
 21
4.066229503840649
 31
0.0
  0
LINE
  5
DA
330
1F
100
AcDbEntity
  8
VISIBLE
100
AcDbLine
 10
7.320507912016815
 20
4.280515218126364
 30
0.0
 11
7.634793626302531
 21
4.280515218126364
 31
0.0
  0
LINE
  5
DB
330
1F
100
AcDbEntity
  8
VISIBLE
100
AcDbLine
 10
7.741936483445393
 20
4.49480093241208
 30
0.0
 11
8.05622219773111
 21
4.49480093241208
 31
0.0
  0
LINE
  5
DC
330
1F
100
AcDbEntity
  8
VISIBLE
100
AcDbLine
 10
8.05622219773111
 20
4.280515218126364
 30
0.0
 11
8.05622219773111
 21
4.273372360983507
 31
0.0
  0
LINE
  5
DD
330
1F
100
AcDbEntity
  8
VISIBLE
100
AcDbLine
 10
7.056865054873967
 20
3.786015218126361
 30
0.0
 11
7.069507912016824
 21
3.786015218126361
 31
0.0
  0
LINE
  5
DE
330
1F
100
AcDbEntity
  8
VISIBLE
100
AcDbLine
 10
7.634793626302532
 20
4.487658075269223
 30
0.0
 11
7.320507912016815
 21
4.487658075269223
 31
0.0
  0
LINE
  5
DF
330
1F
100
AcDbEntity
  8
VISIBLE
100
AcDbLine
 10
7.741936483445393
 20
4.066229503840649
 30
0.0
 11
8.05622219773111
 21
4.066229503840649
 31
0.0
  0
LINE
  5
E0
330
1F
100
AcDbEntity
  8
VISIBLE
100
AcDbLine
 10
8.286436483445403
 20
3.781800932412076
 30
0.0
 11
7.069507912016824
 21
3.78180093241208
 31
0.0
  0
LINE
  5
E1
330
1F
100
AcDbEntity
  8
VISIBLE
100
AcDbLine
 10
8.05622219773111
 20
4.273372360983507
 30
0.0
 11
7.741936483445393
 21
4.273372360983507
 31
0.0
  0
ARC
  5
E2
330
1F
100
AcDbEntity
  8
VISIBLE
100
AcDbCircle
 10
7.549079340588247
 20
4.24608664669779
 30
0.0
 40
0.3764285714285709
100
AcDbArc
 50
39.92211774177088
 51
41.3548883332404
  0
ARC
  5
E3
330
1F
100
AcDbEntity
  8
VISIBLE
100
AcDbCircle
 10
7.549079340588247
 20
4.24608664669779
 30
0.0
 40
0.3764285714285714
100
AcDbArc
 50
4.156774121322266
 51
5.2476687086141
  0
ARC
  5
E4
330
1F
100
AcDbEntity
  8
VISIBLE
100
AcDbCircle
 10
7.549079340588247
 20
4.24608664669779
 30
0.0
 40
0.3764285714285713
100
AcDbArc
 50
330.2131891389259
 51
331.4582593966954
  0
LINE
  5
E5
330
1F
100
AcDbEntity
  8
VISIBLE
100
AcDbLine
 10
7.833365054873961
 20
3.786015218126357
 30
0.0
 11
7.833365054873961
 21
3.781800932412075
 31
0.0
  0
LINE
  5
E6
330
1F
100
AcDbEntity
  8
VISIBLE
100
AcDbLine
 10
7.264793626302533
 20
3.786015218126357
 30
0.0
 11
7.264793626302533
 21
3.781800932412075
 31
0.0
  0
LINE
  5
E7
330
1F
100
AcDbEntity
  8
VISIBLE
100
AcDbLine
 10
7.870507912016811
 20
4.487658075269214
 30
0.0
 11
7.870507912016811
 21
4.494800932412071
 31
0.0
  0
LINE
  5
E8
330
1F
100
AcDbEntity
  8
VISIBLE
100
AcDbLine
 10
6.977579340588245
 20
5.103228740518971
 30
0.0
 11
6.977579340588248
 21
4.817278411403669
 31
0.0
  0
LINE
  5
E9
330
1F
100
AcDbEntity
  8
VISIBLE
100
AcDbLine
 10
6.977579340588245
 20
5.103228740518971
 30
0.0
 11
6.977579340588247
 21
5.388706982832241
 31
0.0
  0
LINE
  5
EA
330
1F
100
AcDbEntity
  8
VISIBLE
100
AcDbLine
 10
6.977579340588251
 20
4.817278411403668
 30
0.0
 11
7.013293626302537
 21
4.817278411403668
 31
0.0
  0
LINE
  5
EB
330
1F
100
AcDbEntity
  8
VISIBLE
100
AcDbLine
 10
6.97757934058825
 20
5.38870698283224
 30
0.0
 11
7.013293626302536
 21
5.38870698283224
 31
0.0
  0
LINE
  5
EC
330
1F
100
AcDbEntity
  8
VISIBLE
100
AcDbLine
 10
6.977579340588253
 20
5.388706982832243
 30
0.0
 11
6.977579340588252
 21
5.350112999175267
 31
0.0
  0
LINE
  5
ED
330
1F
100
AcDbEntity
  8
VISIBLE
100
AcDbLine
 10
6.977579340588253
 20
4.817278411403671
 30
0.0
 11
6.977579340588252
 21
5.350112999175267
 31
0.0
  0
LINE
  5
EE
330
1F
100
AcDbEntity
  8
VISIBLE
100
AcDbLine
 10
6.966865054873966
 20
5.350112999175267
 30
0.0
 11
6.966865054873968
 21
4.817278411403671
 31
0.0
  0
LINE
  5
EF
330
1F
100
AcDbEntity
  8
VISIBLE
100
AcDbLine
 10
6.966865054873966
 20
5.350112999175267
 30
0.0
 11
6.966865054873967
 21
5.388706982832243
 31
0.0
  0
LINE
  5
F0
330
1F
100
AcDbEntity
  8
VISIBLE
100
AcDbLine
 10
6.977579340588251
 20
5.388706982832237
 30
0.0
 11
6.966865054873965
 21
5.388706982832237
 31
0.0
  0
LINE
  5
F1
330
1F
100
AcDbEntity
  8
VISIBLE
100
AcDbLine
 10
6.977579340588251
 20
4.817278411403666
 30
0.0
 11
6.966865054873965
 21
4.817278411403666
 31
0.0
  0
LINE
  5
F2
330
1F
100
AcDbEntity
  8
VISIBLE
100
AcDbLine
 10
7.128865054873964
 20
3.760515218126358
 30
0.0
 11
7.16457934058825
 21
3.760515218126358
 31
0.0
  0
ARC
  5
F3
330
1F
100
AcDbEntity
  8
VISIBLE
100
AcDbCircle
 10
7.025936483445392
 20
3.773158075269214
 30
0.0
 40
0.0126428571428567
100
AcDbArc
 50
179.999999999998
 51
270.000000000004
  0
LINE
  5
F4
330
1F
100
AcDbEntity
  8
VISIBLE
100
AcDbLine
 10
7.025936483445393
 20
3.760515218126357
 30
0.0
 11
7.128865054873964
 21
3.760515218126357
 31
0.0
  0
ARC
  5
F5
330
1F
100
AcDbEntity
  8
VISIBLE
100
AcDbCircle
 10
7.02593648344539
 20
5.466443789554928
 30
0.0
 40
0.0126428571428576
100
AcDbArc
 50
90.0
 51
180.0
  0
LINE
  5
F6
330
1F
100
AcDbEntity
  8
VISIBLE
100
AcDbLine
 10
7.021722197731107
 20
3.773158075269214
 30
0.0
 11
7.021722197731107
 21
3.783658075269215
 31
0.0
  0
LINE
  5
F7
330
1F
100
AcDbEntity
  8
VISIBLE
100
AcDbLine
 10
7.021722197731105
 20
5.447943789554929
 30
0.0
 11
7.021722197731105
 21
5.466443789554928
 31
0.0
  0
LINE
  5
F8
330
1F
100
AcDbEntity
  8
VISIBLE
100
AcDbLine
 10
7.025936483445409
 20
3.773158075269214
 30
0.0
 11
7.021722197731123
 21
3.773158075269214
 31
0.0
  0
LINE
  5
F9
330
1F
100
AcDbEntity
  8
VISIBLE
100
AcDbLine
 10
7.164579340588263
 20
5.466443789554928
 30
0.0
 11
7.164579340588263
 21
5.462229503840639
 31
0.0
  0
LINE
  5
FA
330
1F
100
AcDbEntity
  8
VISIBLE
100
AcDbLine
 10
7.164579340588263
 20
5.453800932412068
 30
0.0
 11
7.164579340588263
 21
5.44958664669779
 31
0.0
  0
LINE
  5
FB
330
1F
100
AcDbEntity
  8
VISIBLE
100
AcDbLine
 10
7.164579340588266
 20
3.786015218126362
 30
0.0
 11
7.164579340588266
 21
3.781800932412075
 31
0.0
  0
LINE
  5
FC
330
1F
100
AcDbEntity
  8
VISIBLE
100
AcDbLine
 10
7.164579340588266
 20
3.773372360983504
 30
0.0
 11
7.164579340588266
 21
3.773158075269214
 31
0.0
  0
LINE
  5
FD
330
1F
100
AcDbEntity
  8
VISIBLE
100
AcDbLine
 10
7.16457934058825
 20
3.760515218126357
 30
0.0
 11
7.16457934058825
 21
3.768943789554929
 31
0.0
  0
LINE
  5
FE
330
1F
100
AcDbEntity
  8
VISIBLE
100
AcDbLine
 10
7.013293626302533
 20
5.466443789554928
 30
0.0
 11
7.013293626302535
 21
3.773158075269214
 31
0.0
  0
LINE
  5
FF
330
1F
100
AcDbEntity
  8
VISIBLE
100
AcDbLine
 10
7.128865054873964
 20
3.768943789554929
 30
0.0
 11
7.025936483445393
 21
3.768943789554928
 31
0.0
  0
LINE
  5
100
330
1F
100
AcDbEntity
  8
VISIBLE
100
AcDbLine
 10
7.021722197731121
 20
5.466443789554928
 30
0.0
 11
7.025936483445406
 21
5.466443789554928
 31
0.0
  0
LINE
  5
101
330
1F
100
AcDbEntity
  8
VISIBLE
100
AcDbLine
 10
7.16457934058825
 20
3.768943789554929
 30
0.0
 11
7.128865054873964
 21
3.768943789554929
 31
0.0
  0
LINE
  5
102
330
1F
100
AcDbEntity
  8
VISIBLE
100
AcDbLine
 10
7.164579340588266
 20
3.773158075269214
 30
0.0
 11
7.025936483445409
 21
3.773158075269214
 31
0.0
  0
ARC
  5
103
330
1F
100
AcDbEntity
  8
VISIBLE
100
AcDbCircle
 10
7.025936483445395
 20
5.466443789554923
 30
0.0
 40
0.0042142857142915
100
AcDbArc
 50
90.00000000007246
 51
179.9999999999276
  0
LINE
  5
104
330
1F
100
AcDbEntity
  8
VISIBLE
100
AcDbLine
 10
7.02593648344539
 20
5.470658075269214
 30
0.0
 11
7.128865054873962
 21
5.470658075269213
 31
0.0
  0
LINE
  5
105
330
1F
100
AcDbEntity
  8
VISIBLE
100
AcDbLine
 10
7.164579340588247
 20
5.470658075269213
 30
0.0
 11
7.164579340588247
 21
5.479086646697785
 31
0.0
  0
LINE
  5
106
330
1F
100
AcDbEntity
  8
VISIBLE
100
AcDbLine
 10
7.164579340588247
 20
5.479086646697785
 30
0.0
 11
7.128865054873962
 21
5.479086646697785
 31
0.0
  0
ARC
  5
107
330
1F
100
AcDbEntity
  8
VISIBLE
100
AcDbCircle
 10
7.02593648344541
 20
3.773158075269229
 30
0.0
 40
0.004214285714303
100
AcDbArc
 50
180.0000000001992
 51
269.9999999997706
  0
LINE
  5
108
330
1F
100
AcDbEntity
  8
VISIBLE
100
AcDbLine
 10
7.128865054873962
 20
5.479086646697786
 30
0.0
 11
7.02593648344539
 21
5.479086646697786
 31
0.0
  0
LINE
  5
109
330
1F
100
AcDbEntity
  8
VISIBLE
100
AcDbLine
 10
7.128865054873962
 20
5.470658075269213
 30
0.0
 11
7.164579340588247
 21
5.470658075269213
 31
0.0
  0
LINE
  5
10A
330
1F
100
AcDbEntity
  8
VISIBLE
100
AcDbLine
 10
7.025936483445406
 20
5.466443789554928
 30
0.0
 11
7.164579340588263
 21
5.466443789554928
 31
0.0
  0
LINE
  5
10B
330
1F
100
AcDbEntity
  8
VISIBLE
100
AcDbLine
 10
7.021722197731106
 20
5.447943789554928
 30
0.0
 11
7.021722197731105
 21
3.783658075269213
 31
0.0
  0
LINE
  5
10C
330
1F
100
AcDbEntity
  8
VISIBLE
100
AcDbLine
 10
7.021722197731106
 20
5.447943789554928
 30
0.0
 11
7.056865054873963
 21
5.447943789554928
 31
0.0
  0
LINE
  5
10D
330
1F
100
AcDbEntity
  8
VISIBLE
100
AcDbLine
 10
7.056865054873963
 20
5.447943789554928
 30
0.0
 11
7.056865054873962
 21
3.783658075269213
 31
0.0
  0
LINE
  5
10E
330
1F
100
AcDbEntity
  8
VISIBLE
100
AcDbLine
 10
7.056865054873962
 20
3.783658075269213
 30
0.0
 11
7.021722197731105
 21
3.783658075269213
 31
0.0
  0
LINE
  5
10F
330
1F
100
AcDbEntity
  8
VISIBLE
100
AcDbLine
 10
6.941150769159678
 20
4.722064125689383
 30
0.0
 11
6.941150769159678
 21
4.555349839975097
 31
0.0
  0
LINE
  5
110
330
1F
100
AcDbEntity
  8
VISIBLE
100
AcDbLine
 10
7.013293626302533
 20
4.722064125689382
 30
0.0
 11
6.941150769159676
 21
4.722064125689382
 31
0.0
  0
LINE
  5
111
330
1F
100
AcDbEntity
  8
VISIBLE
100
AcDbLine
 10
7.013293626302534
 20
4.555349839975096
 30
0.0
 11
6.941150769159677
 21
4.555349839975096
 31
0.0
  0
LINE
  5
112
330
1F
100
AcDbEntity
  8
TANGENT_EDGES
100
AcDbLine
 10
8.286436483445405
 20
5.449586646697801
 30
0.0
 11
8.286436483445403
 21
3.786015218126361
 31
0.0
  0
LINE
  5
113
330
1F
100
AcDbEntity
  8
TANGENT_EDGES
100
AcDbLine
 10
7.069507912016824
 20
3.786015218126361
 30
0.0
 11
7.069507912016825
 21
5.449586646697801
 31
0.0
  0
LINE
  5
114
330
1F
100
AcDbEntity
  8
TANGENT_EDGES
100
AcDbLine
 10
7.025936483445409
 20
3.773158075269214
 30
0.0
 11
7.025936483445409
 21
3.783658075269214
 31
0.0
  0
LINE
  5
115
330
1F
100
AcDbEntity
  8
TANGENT_EDGES
100
AcDbLine
 10
7.025936483445406
 20
5.447943789554929
 30
0.0
 11
7.025936483445406
 21
5.466443789554928
 31
0.0
  0
LINE
  5
116
330
1F
100
AcDbEntity
  8
TANGENT_EDGES
100
AcDbLine
 10
7.128865054873964
 20
3.768943789554929
 30
0.0
 11
7.128865054873964
 21
3.760515218126357
 31
0.0
  0
LINE
  5
117
330
1F
100
AcDbEntity
  8
TANGENT_EDGES
100
AcDbLine
 10
7.128865054873962
 20
5.479086646697786
 30
0.0
 11
7.128865054873962
 21
5.470658075269213
 31
0.0
  0
ARC
  5
118
330
1F
100
AcDbEntity
  8
VISIBLE
100
AcDbCircle
 10
2.264951573752699
 20
5.449586646697819
 30
0.0
 40
0.0042142857142728
100
AcDbArc
 50
89.99999999984907
 51
180.0000000001691
  0
LINE
  5
119
330
1F
100
AcDbEntity
  8
VISIBLE
100
AcDbLine
 10
3.23088014518129
 20
4.059086646697796
 30
0.0
 11
2.916594430895574
 21
4.059086646697796
 31
0.0
  0
LINE
  5
11A
330
1F
100
AcDbEntity
  8
VISIBLE
100
AcDbLine
 10
2.809451573752714
 20
4.487658075269229
 30
0.0
 11
2.495165859466998
 21
4.487658075269229
 31
0.0
  0
LINE
  5
11B
330
1F
100
AcDbEntity
  8
VISIBLE
100
AcDbLine
 10
2.26495157375271
 20
5.449586646697806
 30
0.0
 11
2.252308716609853
 21
5.449586646697806
 31
0.0
  0
LINE
  5
11C
330
1F
100
AcDbEntity
  8
VISIBLE
100
AcDbLine
 10
2.264951573752712
 20
3.786015218126367
 30
0.0
 11
2.252308716609854
 21
3.786015218126367
 31
0.0
  0
LINE
  5
11D
330
1F
100
AcDbEntity
  8
VISIBLE
100
AcDbLine
 10
2.495165859466998
 20
4.487658075269229
 30
0.0
 11
2.495165859466997
 21
4.494800932412085
 31
0.0
  0
LINE
  5
11E
330
1F
100
AcDbEntity
  8
VISIBLE
100
AcDbLine
 10
2.495165859466998
 20
4.28051521812637
 30
0.0
 11
2.809451573752714
 21
4.28051521812637
 31
0.0
  0
LINE
  5
11F
330
1F
100
AcDbEntity
  8
VISIBLE
100
AcDbLine
 10
2.809451573752714
 20
4.494800932412085
 30
0.0
 11
2.809451573752714
 21
4.487658075269229
 31
0.0
  0
LINE
  5
120
330
1F
100
AcDbEntity
  8
VISIBLE
100
AcDbLine
 10
2.916594430895573
 20
4.487658075269228
 30
0.0
 11
2.916594430895573
 21
4.494800932412085
 31
0.0
  0
LINE
  5
121
330
1F
100
AcDbEntity
  8
VISIBLE
100
AcDbLine
 10
3.23088014518129
 20
4.273372360983513
 30
0.0
 11
2.916594430895573
 21
4.273372360983513
 31
0.0
  0
LINE
  5
122
330
1F
100
AcDbEntity
  8
VISIBLE
100
AcDbLine
 10
2.495165859466998
 20
4.273372360983513
 30
0.0
 11
2.495165859466998
 21
4.28051521812637
 31
0.0
  0
LINE
  5
123
330
1F
100
AcDbEntity
  8
VISIBLE
100
AcDbLine
 10
2.916594430895574
 20
4.059086646697796
 30
0.0
 11
2.916594430895574
 21
4.066229503840654
 31
0.0
  0
LINE
  5
124
330
1F
100
AcDbEntity
  8
VISIBLE
100
AcDbLine
 10
2.809451573752714
 20
4.059086646697796
 30
0.0
 11
2.495165859466998
 21
4.059086646697797
 31
0.0
  0
LINE
  5
125
330
1F
100
AcDbEntity
  8
VISIBLE
100
AcDbLine
 10
2.252308716609853
 20
5.449586646697806
 30
0.0
 11
2.252308716609854
 21
3.786015218126367
 31
0.0
  0
LINE
  5
126
330
1F
100
AcDbEntity
  8
VISIBLE
100
AcDbLine
 10
2.495165859466998
 20
4.066229503840654
 30
0.0
 11
2.809451573752714
 21
4.066229503840654
 31
0.0
  0
LINE
  5
127
330
1F
100
AcDbEntity
  8
VISIBLE
100
AcDbLine
 10
3.23088014518129
 20
4.487658075269228
 30
0.0
 11
2.916594430895573
 21
4.487658075269228
 31
0.0
  0
LINE
  5
128
330
1F
100
AcDbEntity
  8
VISIBLE
100
AcDbLine
 10
2.916594430895573
 20
4.273372360983513
 30
0.0
 11
2.916594430895573
 21
4.28051521812637
 31
0.0
  0
LINE
  5
129
330
1F
100
AcDbEntity
  8
VISIBLE
100
AcDbLine
 10
3.23088014518129
 20
4.066229503840654
 30
0.0
 11
3.23088014518129
 21
4.059086646697796
 31
0.0
  0
LINE
  5
12A
330
1F
100
AcDbEntity
  8
VISIBLE
100
AcDbLine
 10
2.916594430895574
 20
4.066229503840654
 30
0.0
 11
3.23088014518129
 21
4.066229503840654
 31
0.0
  0
ARC
  5
12B
330
1F
100
AcDbEntity
  8
VISIBLE
100
AcDbCircle
 10
2.26495157375271
 20
5.449586646697806
 30
0.0
 40
0.0126428571428576
100
AcDbArc
 50
90.00000000000202
 51
179.999999999996
  0
ARC
  5
12C
330
1F
100
AcDbEntity
  8
VISIBLE
100
AcDbCircle
 10
2.264951573752711
 20
3.786015218126367
 30
0.0
 40
0.0126428571428572
100
AcDbArc
 50
180.0
 51
270.000000000002
  0
LINE
  5
12D
330
1F
100
AcDbEntity
  8
VISIBLE
100
AcDbLine
 10
2.495165859466997
 20
4.494800932412085
 30
0.0
 11
2.809451573752714
 21
4.494800932412085
 31
0.0
  0
LINE
  5
12E
330
1F
100
AcDbEntity
  8
VISIBLE
100
AcDbLine
 10
2.809451573752714
 20
4.273372360983513
 30
0.0
 11
2.495165859466998
 21
4.273372360983513
 31
0.0
  0
LINE
  5
12F
330
1F
100
AcDbEntity
  8
VISIBLE
100
AcDbLine
 10
3.386808716609852
 20
5.46222950384066
 30
0.0
 11
2.264951573752709
 21
5.462229503840664
 31
0.0
  0
LINE
  5
130
330
1F
100
AcDbEntity
  8
VISIBLE
100
AcDbLine
 10
3.386808716609851
 20
3.781800932412084
 30
0.0
 11
2.264951573752712
 21
3.781800932412081
 31
0.0
  0
LINE
  5
131
330
1F
100
AcDbEntity
  8
VISIBLE
100
AcDbLine
 10
2.809451573752714
 20
4.066229503840654
 30
0.0
 11
2.809451573752714
 21
4.059086646697796
 31
0.0
  0
LINE
  5
132
330
1F
100
AcDbEntity
  8
VISIBLE
100
AcDbLine
 10
2.916594430895573
 20
4.28051521812637
 30
0.0
 11
3.23088014518129
 21
4.28051521812637
 31
0.0
  0
LINE
  5
133
330
1F
100
AcDbEntity
  8
VISIBLE
100
AcDbLine
 10
2.264951573752709
 20
5.449586646697806
 30
0.0
 11
3.386808716609852
 21
5.449586646697806
 31
0.0
  0
LINE
  5
134
330
1F
100
AcDbEntity
  8
VISIBLE
100
AcDbLine
 10
3.23088014518129
 20
4.28051521812637
 30
0.0
 11
3.23088014518129
 21
4.273372360983513
 31
0.0
  0
LINE
  5
135
330
1F
100
AcDbEntity
  8
VISIBLE
100
AcDbLine
 10
2.809451573752714
 20
4.28051521812637
 30
0.0
 11
2.809451573752714
 21
4.273372360983513
 31
0.0
  0
ARC
  5
136
330
1F
100
AcDbEntity
  8
VISIBLE
100
AcDbCircle
 10
2.264951573752711
 20
3.786015218126367
 30
0.0
 40
0.0042142857142857
100
AcDbArc
 50
180.0
 51
270.0
  0
LINE
  5
137
330
1F
100
AcDbEntity
  8
VISIBLE
100
AcDbLine
 10
2.916594430895573
 20
4.494800932412085
 30
0.0
 11
3.23088014518129
 21
4.494800932412085
 31
0.0
  0
LINE
  5
138
330
1F
100
AcDbEntity
  8
VISIBLE
100
AcDbLine
 10
2.264951573752712
 20
3.773372360983509
 30
0.0
 11
3.386808716609851
 21
3.773372360983513
 31
0.0
  0
LINE
  5
139
330
1F
100
AcDbEntity
  8
VISIBLE
100
AcDbLine
 10
3.386808716609851
 20
3.786015218126366
 30
0.0
 11
2.264951573752713
 21
3.786015218126367
 31
0.0
  0
LINE
  5
13A
330
1F
100
AcDbEntity
  8
VISIBLE
100
AcDbLine
 10
3.23088014518129
 20
4.494800932412085
 30
0.0
 11
3.23088014518129
 21
4.487658075269228
 31
0.0
  0
LINE
  5
13B
330
1F
100
AcDbEntity
  8
VISIBLE
100
AcDbLine
 10
2.495165859466998
 20
4.059086646697797
 30
0.0
 11
2.495165859466998
 21
4.066229503840654
 31
0.0
  0
LINE
  5
13C
330
1F
100
AcDbEntity
  8
VISIBLE
100
AcDbLine
 10
2.26495157375271
 20
5.453800932412092
 30
0.0
 11
3.386808716609852
 21
5.453800932412088
 31
0.0
  0
LINE
  5
13D
330
1F
100
AcDbEntity
  8
VISIBLE
100
AcDbLine
 10
3.286594430895593
 20
3.786015218126366
 30
0.0
 11
3.286594430895593
 21
3.781800932412078
 31
0.0
  0
ARC
  5
13E
330
1F
100
AcDbEntity
  8
VISIBLE
100
AcDbCircle
 10
3.002308716609885
 20
4.246086646697793
 30
0.0
 40
0.3764285714285714
100
AcDbArc
 50
174.7523312913851
 51
175.8432258786768
  0
ARC
  5
13F
330
1F
100
AcDbEntity
  8
VISIBLE
100
AcDbCircle
 10
3.002308716609885
 20
4.246086646697793
 30
0.0
 40
0.3764285714285714
100
AcDbArc
 50
138.6451116667584
 51
140.0778822582279
  0
ARC
  5
140
330
1F
100
AcDbEntity
  8
VISIBLE
100
AcDbCircle
 10
3.002308716609885
 20
4.246086646697793
 30
0.0
 40
0.3764285714285713
100
AcDbArc
 50
208.5417406033035
 51
209.7868108610732
  0
LINE
  5
141
330
1F
100
AcDbEntity
  8
VISIBLE
100
AcDbLine
 10
2.718023002324164
 20
3.786015218126367
 30
0.0
 11
2.718023002324164
 21
3.781800932412078
 31
0.0
  0
LINE
  5
142
330
1F
100
AcDbEntity
  8
VISIBLE
100
AcDbLine
 10
2.680880145181297
 20
4.487658075269223
 30
0.0
 11
2.680880145181297
 21
4.494800932412081
 31
0.0
  0
LINE
  5
143
330
1F
100
AcDbEntity
  8
VISIBLE
100
AcDbLine
 10
3.573808716609855
 20
5.388706982832241
 30
0.0
 11
3.573808716609854
 21
4.817278411403669
 31
0.0
  0
LINE
  5
144
330
1F
100
AcDbEntity
  8
VISIBLE
100
AcDbLine
 10
3.573808716609857
 20
5.38870698283224
 30
0.0
 11
3.538094430895571
 21
5.38870698283224
 31
0.0
  0
LINE
  5
145
330
1F
100
AcDbEntity
  8
VISIBLE
100
AcDbLine
 10
3.573808716609857
 20
4.817278411403668
 30
0.0
 11
3.538094430895571
 21
4.817278411403668
 31
0.0
  0
LINE
  5
146
330
1F
100
AcDbEntity
  8
VISIBLE
100
AcDbLine
 10
3.573808716609855
 20
4.817278411403671
 30
0.0
 11
3.573808716609856
 21
5.388706982832243
 31
0.0
  0
LINE
  5
147
330
1F
100
AcDbEntity
  8
VISIBLE
100
AcDbLine
 10
3.584523002324141
 20
5.388706982832243
 30
0.0
 11
3.584523002324141
 21
4.817278411403671
 31
0.0
  0
LINE
  5
148
330
1F
100
AcDbEntity
  8
VISIBLE
100
AcDbLine
 10
3.573808716609857
 20
5.388706982832237
 30
0.0
 11
3.584523002324143
 21
5.388706982832237
 31
0.0
  0
LINE
  5
149
330
1F
100
AcDbEntity
  8
VISIBLE
100
AcDbLine
 10
3.573808716609856
 20
4.817278411403666
 30
0.0
 11
3.584523002324142
 21
4.817278411403666
 31
0.0
  0
LINE
  5
14A
330
1F
100
AcDbEntity
  8
VISIBLE
100
AcDbLine
 10
3.386808716609845
 20
5.470658075269213
 30
0.0
 11
3.525451573752702
 21
5.470658075269214
 31
0.0
  0
LINE
  5
14B
330
1F
100
AcDbEntity
  8
VISIBLE
100
AcDbLine
 10
3.538094430895557
 20
3.773158075269214
 30
0.0
 11
3.538094430895559
 21
5.466443789554928
 31
0.0
  0
LINE
  5
14C
330
1F
100
AcDbEntity
  8
VISIBLE
100
AcDbLine
 10
3.386808716609842
 20
3.768943789554929
 30
0.0
 11
3.386808716609842
 21
3.760515218126357
 31
0.0
  0
LINE
  5
14D
330
1F
100
AcDbEntity
  8
VISIBLE
100
AcDbLine
 10
3.525451573752699
 20
3.768943789554928
 30
0.0
 11
3.386808716609842
 21
3.768943789554929
 31
0.0
  0
ARC
  5
14E
330
1F
100
AcDbEntity
  8
VISIBLE
100
AcDbCircle
 10
3.525451573752713
 20
3.773158075269198
 30
0.0
 40
0.0042142857142697
100
AcDbArc
 50
269.9999999998249
 51
0.0000000002173559
  0
ARC
  5
14F
330
1F
100
AcDbEntity
  8
VISIBLE
100
AcDbCircle
 10
3.525451573752702
 20
5.466443789554928
 30
0.0
 40
0.0126428571428576
100
AcDbArc
 50
0.0
 51
90.0
  0
LINE
  5
150
330
1F
100
AcDbEntity
  8
VISIBLE
100
AcDbLine
 10
3.525451573752702
 20
5.479086646697786
 30
0.0
 11
3.386808716609845
 21
5.479086646697786
 31
0.0
  0
LINE
  5
151
330
1F
100
AcDbEntity
  8
VISIBLE
100
AcDbLine
 10
3.386808716609842
 20
3.760515218126357
 30
0.0
 11
3.525451573752699
 21
3.760515218126356
 31
0.0
  0
ARC
  5
152
330
1F
100
AcDbEntity
  8
VISIBLE
100
AcDbCircle
 10
3.525451573752699
 20
5.466443789554926
 30
0.0
 40
0.0042142857142884
100
AcDbArc
 50
0.0000000000241507
 51
89.99999999996982
  0
LINE
  5
153
330
1F
100
AcDbEntity
  8
VISIBLE
100
AcDbLine
 10
3.386808716609845
 20
5.470658075269213
 30
0.0
 11
3.386808716609845
 21
5.479086646697785
 31
0.0
  0
ARC
  5
154
330
1F
100
AcDbEntity
  8
VISIBLE
100
AcDbCircle
 10
3.5254515737527
 20
3.773158075269214
 30
0.0
 40
0.0126428571428572
100
AcDbArc
 50
270.000000000004
 51
359.999999999998
  0
LINE
  5
155
330
1F
100
AcDbEntity
  8
VISIBLE
100
AcDbLine
 10
3.538094430895559
 20
5.466443789554928
 30
0.0
 11
3.525451573752702
 21
5.466443789554928
 31
0.0
  0
LINE
  5
156
330
1F
100
AcDbEntity
  8
VISIBLE
100
AcDbLine
 10
3.386808716609845
 20
5.466443789554928
 30
0.0
 11
3.525451573752702
 21
5.466443789554928
 31
0.0
  0
LINE
  5
157
330
1F
100
AcDbEntity
  8
VISIBLE
100
AcDbLine
 10
3.525451573752699
 20
3.773158075269214
 30
0.0
 11
3.386808716609842
 21
3.773158075269214
 31
0.0
  0
LINE
  5
158
330
1F
100
AcDbEntity
  8
VISIBLE
100
AcDbLine
 10
3.386808716609842
 20
3.773158075269214
 30
0.0
 11
3.386808716609845
 21
5.466443789554928
 31
0.0
  0
LINE
  5
159
330
1F
100
AcDbEntity
  8
VISIBLE
100
AcDbLine
 10
3.525451573752699
 20
3.773158075269214
 30
0.0
 11
3.538094430895557
 21
3.773158075269214
 31
0.0
  0
LINE
  5
15A
330
1F
100
AcDbEntity
  8
VISIBLE
100
AcDbLine
 10
3.610237288038431
 20
4.555349839975097
 30
0.0
 11
3.610237288038431
 21
4.722064125689383
 31
0.0
  0
LINE
  5
15B
330
1F
100
AcDbEntity
  8
VISIBLE
100
AcDbLine
 10
3.538094430895574
 20
4.722064125689382
 30
0.0
 11
3.610237288038431
 21
4.722064125689382
 31
0.0
  0
LINE
  5
15C
330
1F
100
AcDbEntity
  8
VISIBLE
100
AcDbLine
 10
3.538094430895574
 20
4.555349839975096
 30
0.0
 11
3.610237288038431
 21
4.555349839975096
 31
0.0
  0
LINE
  5
15D
330
1F
100
AcDbEntity
  8
TANGENT_EDGES
100
AcDbLine
 10
2.264951573752712
 20
3.786015218126367
 30
0.0
 11
2.26495157375271
 21
5.449586646697806
 31
0.0
  0
LINE
  5
15E
330
1F
100
AcDbEntity
  8
TANGENT_EDGES
100
AcDbLine
 10
3.525451573752702
 20
5.466443789554928
 30
0.0
 11
3.525451573752699
 21
3.773158075269214
 31
0.0
  0
ELLIPSE
  5
15F
330
1F
100
AcDbEntity
  8
VISIBLE
100
AcDbEllipse
 10
0.4759548257288437
 20
7.113598709355495
 30
0.0
 11
0.002107142857135091
 21
-0.003649678487362529
 31
0.0
210
0.0
220
0.0
230
0.9999999999999997
 40
0.5773502691908325
 41
-3.141592653590687
 42
-2.356194490191617
  0
ELLIPSE
  5
160
330
1F
100
AcDbEntity
  8
VISIBLE
100
AcDbEllipse
 10
0.4759548257288437
 20
7.113598709355495
 30
0.0
 11
0.002107142857135091
 21
-0.003649678487362529
 31
0.0
210
0.0
220
0.0
230
0.9999999999999997
 40
0.5773502691908325
 41
-3.926990816986374
 42
-3.141592653590687
  0
LINE
  5
161
330
1F
100
AcDbEntity
  8
VISIBLE
100
AcDbLine
 10
0.9277960589070626
 20
5.707066706338759
 30
0.0
 11
0.9328468216298236
 21
5.709982765556358
 31
0.0
  0
LINE
  5
162
330
1F
100
AcDbEntity
  8
VISIBLE
100
AcDbLine
 10
1.150029618708554
 20
5.578760100764403
 30
0.0
 11
0.9277960589070634
 21
5.707066706338759
 31
0.0
  0
LINE
  5
163
330
1F
100
AcDbEntity
  8
VISIBLE
100
AcDbLine
 10
0.8520346180656457
 20
6.10073470071463
 30
0.0
 11
0.6298010582641543
 21
6.229041306288986
 31
0.0
  0
ELLIPSE
  5
164
330
1F
100
AcDbEntity
  8
VISIBLE
100
AcDbEllipse
 10
0.4759548257288529
 20
7.11359870935548
 30
0.0
 11
-0.01264285714285762
 21
8.881784197001252E-16
 31
0.0
210
0.0
220
0.0
230
1.0
 40
0.5773502691896594
 41
0.0
 42
0.7853981633973627
  0
ELLIPSE
  5
165
330
1F
100
AcDbEntity
  8
VISIBLE
100
AcDbEllipse
 10
0.4759548257288529
 20
7.11359870935548
 30
0.0
 11
-0.01264285714285762
 21
8.881784197001252E-16
 31
0.0
210
0.0
220
0.0
230
1.0
 40
0.5773502691896594
 41
-0.7853981633969837
 42
0.0
  0
ELLIPSE
  5
166
330
1F
100
AcDbEntity
  8
VISIBLE
100
AcDbEllipse
 10
0.4759548257288467
 20
5.755298325797843
 30
0.0
 11
-0.01264285714285718
 21
8.881784197001252E-16
 31
0.0
210
0.0
220
0.0
230
1.0
 40
0.5773502691896094
 41
0.0
 42
0.7853981633976187
  0
ELLIPSE
  5
167
330
1F
100
AcDbEntity
  8
VISIBLE
100
AcDbEllipse
 10
0.5827784573152478
 20
7.068195665802696
 30
0.0
 11
0.008928571428572729
 21
0.01546473935329651
 31
0.0
210
0.0
220
0.0
230
0.9999999999999998
 40
0.5773502691896232
 41
2.242414960302774
 42
2.356141858613141
  0
LINE
  5
168
330
1F
100
AcDbEntity
  8
VISIBLE
100
AcDbLine
 10
0.6298010582641543
 20
6.229041306288986
 30
0.0
 11
0.6298010582641538
 21
6.234873424724184
 31
0.0
  0
ELLIPSE
  5
169
330
1F
100
AcDbEntity
  8
VISIBLE
100
AcDbEllipse
 10
2.059267924059988
 20
8.02772495288842
 30
0.0
 11
-0.006321428571429699
 21
0.01094903546213288
 31
0.0
210
0.0
220
0.0
230
1.0
 40
0.5773502691895885
 41
-0.7853981633975218
 42
0.0
  0
LINE
  5
16A
330
1F
100
AcDbEntity
  8
VISIBLE
100
AcDbLine
 10
0.6298010582641536
 20
6.059909871668242
 30
0.0
 11
0.8520346180656453
 21
5.931603266093886
 31
0.0
  0
LINE
  5
16B
330
1F
100
AcDbEntity
  8
VISIBLE
100
AcDbLine
 10
0.8520346180656456
 20
6.106566819149829
 30
0.0
 11
0.8520346180656457
 21
6.10073470071463
 31
0.0
  0
LINE
  5
16C
330
1F
100
AcDbEntity
  8
VISIBLE
100
AcDbLine
 10
0.9277960589070641
 20
6.056993812450645
 30
0.0
 11
0.9277960589070641
 21
6.062825930885843
 31
0.0
  0
LINE
  5
16D
330
1F
100
AcDbEntity
  8
VISIBLE
100
AcDbLine
 10
1.251196396045446
 20
6.662571830169453
 30
0.0
 11
0.4729748757224226
 21
7.111878234417096
 31
0.0
  0
LINE
  5
16E
330
1F
100
AcDbEntity
  8
VISIBLE
100
AcDbLine
 10
2.059267924059986
 20
8.038047802518722
 30
0.0
 11
2.841006147721215
 21
7.586711028652093
 31
0.0
  0
LINE
  5
16F
330
1F
100
AcDbEntity
  8
VISIBLE
100
AcDbLine
 10
1.150029618708555
 20
5.753723653820346
 30
0.0
 11
0.9277960589070637
 21
5.882030259394702
 31
0.0
  0
LINE
  5
170
330
1F
100
AcDbEntity
  8
VISIBLE
100
AcDbLine
 10
0.6298010582641533
 20
6.054077753233043
 30
0.0
 11
0.6298010582641533
 21
6.059909871668242
 31
0.0
  0
LINE
  5
171
330
1F
100
AcDbEntity
  8
VISIBLE
100
AcDbLine
 10
0.9277960589070631
 20
5.707066706338759
 30
0.0
 11
0.9277960589070631
 21
5.712898824773958
 31
0.0
  0
ELLIPSE
  5
172
330
1F
100
AcDbEntity
  8
VISIBLE
100
AcDbEllipse
 10
0.4759548257288692
 20
7.113598709355479
 30
0.0
 11
0.004214285714303156
 21
-3.552713678800501E-15
 31
0.0
210
0.0
220
0.0
230
1.0
 40
0.577350269188205
 41
-3.141592653588333
 42
-2.3561944901934
  0
ELLIPSE
  5
173
330
1F
100
AcDbEntity
  8
VISIBLE
100
AcDbEllipse
 10
0.4759548257288692
 20
7.113598709355479
 30
0.0
 11
0.004214285714303156
 21
-3.552713678800501E-15
 31
0.0
210
0.0
220
0.0
230
1.0
 40
0.577350269188205
 41
-3.926990816984171
 42
-3.141592653588333
  0
LINE
  5
174
330
1F
100
AcDbEntity
  8
VISIBLE
100
AcDbLine
 10
0.8520346180656441
 20
5.750807594602745
 30
0.0
 11
0.6298010582641524
 21
5.8791142001771
 31
0.0
  0
ELLIPSE
  5
175
330
1F
100
AcDbEntity
  8
VISIBLE
100
AcDbEllipse
 10
0.5768185573023897
 20
7.042476023503473
 30
0.0
 11
0.0133928571428571
 21
0.02319710902994032
 31
0.0
210
0.0
220
0.0
230
1.0
 40
0.5773502691896226
 41
5.022821151595254
 42
5.268601122446869
  0
LINE
  5
176
330
1F
100
AcDbEntity
  8
VISIBLE
100
AcDbLine
 10
0.6298010582641529
 20
5.884946318612299
 30
0.0
 11
0.8520346180656444
 21
5.756639713037943
 31
0.0
  0
LINE
  5
177
330
1F
100
AcDbEntity
  8
VISIBLE
100
AcDbLine
 10
1.150029618708556
 20
5.928687206876289
 30
0.0
 11
0.9277960589070645
 21
6.056993812450645
 31
0.0
  0
LINE
  5
178
330
1F
100
AcDbEntity
  8
VISIBLE
100
AcDbLine
 10
0.9277960589070626
 20
5.882030259394702
 30
0.0
 11
0.9328468216298238
 21
5.8849463186123
 31
0.0
  0
LINE
  5
179
330
1F
100
AcDbEntity
  8
VISIBLE
100
AcDbLine
 10
0.9277960589070635
 20
5.882030259394702
 30
0.0
 11
0.9277960589070637
 21
5.8878623778299
 31
0.0
  0
LINE
  5
17A
330
1F
100
AcDbEntity
  8
VISIBLE
100
AcDbLine
 10
1.150029618708554
 20
5.584592219199601
 30
0.0
 11
1.150029618708554
 21
5.578760100764403
 31
0.0
  0
LINE
  5
17B
330
1F
100
AcDbEntity
  8
VISIBLE
100
AcDbLine
 10
0.9277960589070634
 20
5.712898824773958
 30
0.0
 11
1.150029618708554
 21
5.584592219199601
 31
0.0
  0
ELLIPSE
  5
17C
330
1F
100
AcDbEntity
  8
VISIBLE
100
AcDbEllipse
 10
0.4759548257288521
 20
7.11359870935548
 30
0.0
 11
-0.006321428571428589
 21
0.010949035462132
 31
0.0
210
0.0
220
0.0
230
1.0
 40
0.5773502691896604
 41
0.0
 42
0.785398163397076
  0
ELLIPSE
  5
17D
330
1F
100
AcDbEntity
  8
VISIBLE
100
AcDbEllipse
 10
0.4759548257288521
 20
7.11359870935548
 30
0.0
 11
-0.006321428571428589
 21
0.010949035462132
 31
0.0
210
0.0
220
0.0
230
1.0
 40
0.5773502691896604
 41
-0.7853981633974124
 42
0.0
  0
LINE
  5
17E
330
1F
100
AcDbEntity
  8
VISIBLE
100
AcDbLine
 10
0.6298010582641531
 20
6.229041306288986
 30
0.0
 11
0.634851820986914
 21
6.231957365506585
 31
0.0
  0
LINE
  5
17F
330
1F
100
AcDbEntity
  8
VISIBLE
100
AcDbLine
 10
1.506878733108342
 20
5.422904084119163
 30
0.0
 11
1.495842614299254
 21
5.416532377953928
 31
0.0
  0
LINE
  5
180
330
1F
100
AcDbEntity
  8
VISIBLE
100
AcDbLine
 10
0.6298010582641538
 20
6.234873424724184
 30
0.0
 11
0.8520346180656456
 21
6.106566819149829
 31
0.0
  0
LINE
  5
181
330
1F
100
AcDbEntity
  8
VISIBLE
100
AcDbLine
 10
0.8520346180656448
 20
5.925771147658687
 30
0.0
 11
0.6298010582641533
 21
6.054077753233043
 31
0.0
  0
LINE
  5
182
330
1F
100
AcDbEntity
  8
VISIBLE
100
AcDbLine
 10
1.257307818939995
 20
6.672807198023209
 30
0.0
 11
0.4759548257288517
 21
7.12392155898578
 31
0.0
  0
ELLIPSE
  5
183
330
1F
100
AcDbEntity
  8
VISIBLE
100
AcDbEllipse
 10
1.336453270805673
 20
6.616789700453139
 30
0.0
 11
0.0126428571428574
 21
0.0
 31
0.0
210
0.0
220
0.0
230
1.0
 40
0.5773502691896695
 41
3.926990816987204
 42
5.139914463526976
  0
LINE
  5
184
330
1F
100
AcDbEntity
  8
VISIBLE
100
AcDbLine
 10
0.6298010582641523
 20
5.8791142001771
 30
0.0
 11
0.6348518209869135
 21
5.8820302593947
 31
0.0
  0
LINE
  5
185
330
1F
100
AcDbEntity
  8
VISIBLE
100
AcDbLine
 10
0.8520346180656441
 20
5.756639713037942
 30
0.0
 11
0.8520346180656441
 21
5.750807594602745
 31
0.0
  0
LINE
  5
186
330
1F
100
AcDbEntity
  8
VISIBLE
100
AcDbLine
 10
0.9277960589070637
 20
5.8878623778299
 30
0.0
 11
1.150029618708555
 21
5.759555772255545
 31
0.0
  0
ELLIPSE
  5
187
330
1F
100
AcDbEntity
  8
VISIBLE
100
AcDbEllipse
 10
0.5827784573152478
 20
7.039035073626706
 30
0.0
 11
0.0133928571428571
 21
0.02319710902994032
 31
0.0
210
0.0
220
0.0
230
1.0
 40
0.5773502691896155
 41
5.022821151595322
 42
5.268601122446861
  0
LINE
  5
188
330
1F
100
AcDbEntity
  8
VISIBLE
100
AcDbLine
 10
0.4670149757095651
 20
7.108437284540329
 30
0.0
 11
1.327513420786386
 21
6.611628275637988
 31
0.0
  0
LINE
  5
189
330
1F
100
AcDbEntity
  8
VISIBLE
100
AcDbLine
 10
0.472974875722423
 20
7.115319184293863
 30
0.0
 11
0.4670149757095649
 21
7.11876013417063
 31
0.0
  0
ELLIPSE
  5
18A
330
1F
100
AcDbEntity
  8
VISIBLE
100
AcDbEllipse
 10
1.511260168640425
 20
5.514256870871113
 30
0.0
 11
-0.0223214285714286
 21
0.0
 31
0.0
210
0.0
220
0.0
230
1.0
 40
0.5773502691896161
 41
1.287456119604726
 42
2.596713806648955
  0
LINE
  5
18B
330
1F
100
AcDbEntity
  8
VISIBLE
100
AcDbLine
 10
0.9277960589070626
 20
6.056993812450644
 30
0.0
 11
0.9328468216298237
 21
6.059909871668243
 31
0.0
  0
LINE
  5
18C
330
1F
100
AcDbEntity
  8
VISIBLE
100
AcDbLine
 10
1.150029618708555
 20
5.759555772255545
 30
0.0
 11
1.150029618708555
 21
5.753723653820346
 31
0.0
  0
LINE
  5
18D
330
1F
100
AcDbEntity
  8
VISIBLE
100
AcDbLine
 10
0.8520346180656448
 20
5.931603266093886
 30
0.0
 11
0.8520346180656446
 21
5.925771147658687
 31
0.0
  0
LINE
  5
18E
330
1F
100
AcDbEntity
  8
VISIBLE
100
AcDbLine
 10
0.5701513165731742
 20
7.055773390133028
 30
0.0
 11
0.570151550525832
 21
7.060906285152802
 31
0.0
  0
LINE
  5
18F
330
1F
100
AcDbEntity
  8
VISIBLE
100
AcDbLine
 10
0.9277960589070645
 20
6.062825930885843
 30
0.0
 11
1.150029618708556
 21
5.934519325311487
 31
0.0
  0
LINE
  5
190
330
1F
100
AcDbEntity
  8
VISIBLE
100
AcDbLine
 10
1.242256546026155
 20
5.302550971673432
 30
0.0
 11
0.467014975709561
 21
5.750136900982692
 31
0.0
  0
LINE
  5
191
330
1F
100
AcDbEntity
  8
VISIBLE
100
AcDbLine
 10
1.150029618708555
 20
5.934519325311487
 30
0.0
 11
1.150029618708556
 21
5.928687206876289
 31
0.0
  0
LINE
  5
192
330
1F
100
AcDbEntity
  8
VISIBLE
100
AcDbLine
 10
0.6298010582641527
 20
5.879114200177101
 30
0.0
 11
0.6298010582641527
 21
5.884946318612299
 31
0.0
  0
LINE
  5
193
330
1F
100
AcDbEntity
  8
VISIBLE
100
AcDbLine
 10
0.4759548257288517
 20
7.117039659232247
 30
0.0
 11
1.251347918927137
 21
6.669366248146442
 31
0.0
  0
LINE
  5
194
330
1F
100
AcDbEntity
  8
VISIBLE
100
AcDbLine
 10
0.6298010582641526
 20
6.054077753233043
 30
0.0
 11
0.6348518209869134
 21
6.056993812450642
 31
0.0
  0
LINE
  5
195
330
1F
100
AcDbEntity
  8
VISIBLE
100
AcDbLine
 10
0.463311968586002
 20
7.113598709355475
 30
0.0
 11
0.4633119685860002
 21
5.755298325797849
 31
0.0
  0
LINE
  5
196
330
1F
100
AcDbEntity
  8
VISIBLE
100
AcDbLine
 10
2.05294649548856
 20
8.038673988350544
 30
0.0
 11
0.4696333971574306
 21
7.124547744817607
 31
0.0
  0
ELLIPSE
  5
197
330
1F
100
AcDbEntity
  8
VISIBLE
100
AcDbEllipse
 10
2.7205642873511
 20
7.057854429380786
 30
0.0
 11
0.1428571428571446
 21
0.2474358296526962
 31
0.0
210
0.0
220
0.0
230
0.9999999999999999
 40
0.5773502691896247
 41
0.0
 42
3.141592653589801
  0
ELLIPSE
  5
198
330
1F
100
AcDbEntity
  8
VISIBLE
100
AcDbEllipse
 10
2.695310473737294
 20
7.072434725468781
 30
0.0
 11
0.1428571428571441
 21
0.2474358296526962
 31
0.0
210
0.0
220
0.0
230
0.9999999999999999
 40
0.5773502691896266
 41
0.0
 42
3.141592653589793
  0
LINE
  5
199
330
1F
100
AcDbEntity
  8
VISIBLE
100
AcDbLine
 10
2.577707144493955
 20
6.810418599728091
 30
0.0
 11
2.55245333088015
 21
6.824998895816086
 31
0.0
  0
LINE
  5
19A
330
1F
100
AcDbEntity
  8
VISIBLE
100
AcDbLine
 10
2.863421430208243
 20
7.305290259033483
 30
0.0
 11
2.838167616594438
 21
7.319870555121478
 31
0.0
  0
ELLIPSE
  5
19B
330
1F
100
AcDbEntity
  8
VISIBLE
100
AcDbEllipse
 10
2.728140431435241
 20
7.053480340554387
 30
0.0
 11
0.09590357308262164
 21
0.1661098612064951
 31
0.0
210
0.0
220
0.0
230
1.0
 40
0.5773502691896311
 41
0.2595949015195937
 42
3.141592653589779
  0
ELLIPSE
  5
19C
330
1F
100
AcDbEntity
  8
VISIBLE
100
AcDbEllipse
 10
2.728140431435241
 20
7.053480340554387
 30
0.0
 11
0.09590357308262164
 21
0.1661098612064951
 31
0.0
210
0.0
220
0.0
230
1.0
 40
0.5773502691896311
 41
3.141592653589778
 42
6.283185307179586
  0
ELLIPSE
  5
19D
330
1F
100
AcDbEntity
  8
VISIBLE
100
AcDbEllipse
 10
2.728140431435241
 20
7.053480340554387
 30
0.0
 11
0.09590357308262164
 21
0.1661098612064951
 31
0.0
210
0.0
220
0.0
230
1.0
 40
0.5773502691896311
 41
0.0
 42
0.2595949015195937
  0
ELLIPSE
  5
19E
330
1F
100
AcDbEntity
  8
VISIBLE
100
AcDbEllipse
 10
2.720564287351099
 20
7.057854429380786
 30
0.0
 11
0.1428571428571441
 21
0.2474358296526962
 31
0.0
210
0.0
220
0.0
230
1.0
 40
0.5773502691896321
 41
0.2595949015195999
 42
3.141592653589785
  0
ELLIPSE
  5
19F
330
1F
100
AcDbEntity
  8
VISIBLE
100
AcDbEllipse
 10
2.720564287351099
 20
7.057854429380786
 30
0.0
 11
0.1428571428571441
 21
0.2474358296526962
 31
0.0
210
0.0
220
0.0
230
1.0
 40
0.5773502691896321
 41
0.0
 42
0.2595949015195999
  0
ELLIPSE
  5
1A0
330
1F
100
AcDbEntity
  8
VISIBLE
100
AcDbEllipse
 10
2.728140431435241
 20
7.053480340554387
 30
0.0
 11
0.1428571428571446
 21
0.2474358296526962
 31
0.0
210
0.0
220
0.0
230
1.0
 40
0.5773502691896344
 41
0.0
 42
0.2595949015196015
  0
ELLIPSE
  5
1A1
330
1F
100
AcDbEntity
  8
VISIBLE
100
AcDbEllipse
 10
2.728140431435241
 20
7.053480340554387
 30
0.0
 11
0.1428571428571446
 21
0.2474358296526962
 31
0.0
210
0.0
220
0.0
230
1.0
 40
0.5773502691896344
 41
3.141592653589787
 42
6.283185307179586
  0
ELLIPSE
  5
1A2
330
1F
100
AcDbEntity
  8
VISIBLE
100
AcDbEllipse
 10
2.728140431435241
 20
7.053480340554387
 30
0.0
 11
0.1428571428571446
 21
0.2474358296526962
 31
0.0
210
0.0
220
0.0
230
1.0
 40
0.5773502691896344
 41
0.2595949015196015
 42
3.141592653589787
  0
ELLIPSE
  5
1A3
330
1F
100
AcDbEntity
  8
VISIBLE
100
AcDbEllipse
 10
2.727663626760961
 20
6.854913794788402
 30
0.0
 11
0.006750000000000255
 21
0.01169134295108964
 31
0.0
210
0.0
220
0.0
230
1.0
 40
0.5773502691896435
 41
0.0
 42
0.2595949015195962
  0
ELLIPSE
  5
1A4
330
1F
100
AcDbEntity
  8
VISIBLE
100
AcDbEllipse
 10
2.727663626760961
 20
6.854913794788402
 30
0.0
 11
0.006750000000000255
 21
0.01169134295108964
 31
0.0
210
0.0
220
0.0
230
1.0
 40
0.5773502691896435
 41
3.141592653589844
 42
6.283185307179586
  0
ELLIPSE
  5
1A5
330
1F
100
AcDbEntity
  8
VISIBLE
100
AcDbEllipse
 10
2.727663626760961
 20
6.854913794788402
 30
0.0
 11
0.006750000000000255
 21
0.01169134295108964
 31
0.0
210
0.0
220
0.0
230
1.0
 40
0.5773502691896435
 41
0.2595949015195962
 42
3.141592653589844
  0
ELLIPSE
  5
1A6
330
1F
100
AcDbEntity
  8
VISIBLE
100
AcDbEllipse
 10
2.876999418135358
 20
7.238289668379753
 30
0.0
 11
0.006749999999999812
 21
0.01169134295108876
 31
0.0
210
0.0
220
0.0
230
1.0
 40
0.5773502691896291
 41
0.0
 42
0.2595949015196208
  0
ELLIPSE
  5
1A7
330
1F
100
AcDbEntity
  8
VISIBLE
100
AcDbEllipse
 10
2.876999418135358
 20
7.238289668379753
 30
0.0
 11
0.006749999999999812
 21
0.01169134295108876
 31
0.0
210
0.0
220
0.0
230
1.0
 40
0.5773502691896291
 41
3.141592653589857
 42
6.283185307179586
  0
ELLIPSE
  5
1A8
330
1F
100
AcDbEntity
  8
VISIBLE
100
AcDbEllipse
 10
2.876999418135358
 20
7.238289668379753
 30
0.0
 11
0.006749999999999812
 21
0.01169134295108876
 31
0.0
210
0.0
220
0.0
230
1.0
 40
0.5773502691896291
 41
0.2595949015196208
 42
3.141592653589857
  0
ELLIPSE
  5
1A9
330
1F
100
AcDbEntity
  8
VISIBLE
100
AcDbEllipse
 10
2.720564287351099
 20
7.057854429380786
 30
0.0
 11
0.09590357308262164
 21
0.1661098612064951
 31
0.0
210
0.0
220
0.0
230
0.9999999999999999
 40
0.5773502691896332
 41
3.181101689667243
 42
6.243676271102129
  0
ELLIPSE
  5
1AA
330
1F
100
AcDbEntity
  8
VISIBLE
100
AcDbEllipse
 10
2.579611056284686
 20
7.067251205469789
 30
0.0
 11
0.006750000000000257
 21
0.01169134295108876
 31
0.0
210
0.0
220
0.0
230
1.0
 40
0.5773502691896808
 41
0.0
 42
0.259594901519646
  0
ELLIPSE
  5
1AB
330
1F
100
AcDbEntity
  8
VISIBLE
100
AcDbEllipse
 10
2.579611056284686
 20
7.067251205469789
 30
0.0
 11
0.006750000000000257
 21
0.01169134295108876
 31
0.0
210
0.0
220
0.0
230
1.0
 40
0.5773502691896808
 41
3.141592653589907
 42
6.283185307179586
  0
ELLIPSE
  5
1AC
330
1F
100
AcDbEntity
  8
VISIBLE
100
AcDbEllipse
 10
2.579611056284686
 20
7.067251205469789
 30
0.0
 11
0.006750000000000257
 21
0.01169134295108876
 31
0.0
210
0.0
220
0.0
230
1.0
 40
0.5773502691896808
 41
0.259594901519646
 42
3.141592653589907
  0
LINE
  5
1AD
330
1F
100
AcDbEntity
  8
VISIBLE
100
AcDbLine
 10
2.577707144493954
 20
6.81041859972809
 30
0.0
 11
2.585283288578096
 21
6.806044510901691
 31
0.0
  0
LINE
  5
1AE
330
1F
100
AcDbEntity
  8
VISIBLE
100
AcDbLine
 10
2.863421430208243
 20
7.30529025903348
 30
0.0
 11
2.870997574292385
 21
7.300916170207082
 31
0.0
  0
LINE
  5
1AF
330
1F
100
AcDbEntity
  8
VISIBLE
100
AcDbLine
 10
1.251196396045445
 20
6.662396866616374
 30
0.0
 11
1.349231700494237
 21
6.605796157202777
 31
0.0
  0
ELLIPSE
  5
1B0
330
1F
100
AcDbEntity
  8
VISIBLE
100
AcDbEllipse
 10
2.959515871764927
 20
6.149491210832874
 30
0.0
 11
0.006321428571428367
 21
-0.010949035462132
 31
0.0
210
0.0
220
0.0
230
0.9999999999999999
 40
0.5773502691896191
 41
0.0
 42
0.7853981633975374
  0
LINE
  5
1B1
330
1F
100
AcDbEntity
  8
VISIBLE
100
AcDbLine
 10
1.474995692290988
 20
6.483028647175008
 30
0.0
 11
1.474995692290987
 21
6.528638647271955
 31
0.0
  0
ELLIPSE
  5
1B2
330
1F
100
AcDbEntity
  8
VISIBLE
100
AcDbEllipse
 10
1.507320573716657
 20
5.459551599948952
 30
0.0
 11
0.02678571428571463
 21
0.04639421805988064
 31
0.0
210
0.0
220
0.0
230
1.0
 40
0.5773502691896358
 41
0.0
 42
1.807743858175537
  0
ELLIPSE
  5
1B3
330
1F
100
AcDbEntity
  8
VISIBLE
100
AcDbEllipse
 10
1.507320573716657
 20
5.459551599948952
 30
0.0
 11
0.02678571428571463
 21
0.04639421805988064
 31
0.0
210
0.0
220
0.0
230
1.0
 40
0.5773502691896358
 41
-0.2369475313806227
 42
0.0
  0
ELLIPSE
  5
1B4
330
1F
100
AcDbEntity
  8
VISIBLE
100
AcDbEllipse
 10
1.501360673703799
 20
5.462992549825719
 30
0.0
 11
0.02678571428571441
 21
0.04639421805988064
 31
0.0
210
0.0
220
0.0
230
0.9999999999999997
 40
0.5773502691896298
 41
-0.2369475313806198
 42
-0.1114822457514358
  0
LINE
  5
1B5
330
1F
100
AcDbEntity
  8
VISIBLE
100
AcDbLine
 10
1.533685555129471
 20
5.458850328769879
 30
0.0
 11
1.533685555129471
 21
5.504460328866827
 31
0.0
  0
ELLIPSE
  5
1B6
330
1F
100
AcDbEntity
  8
VISIBLE
100
AcDbEllipse
 10
1.501360673703799
 20
5.462992549825719
 30
0.0
 11
0.02678571428571441
 21
0.04639421805988064
 31
0.0
210
0.0
220
0.0
230
0.9999999999999997
 40
0.5773502691896298
 41
3.253074899341218
 42
4.949336511765326
  0
ELLIPSE
  5
1B7
330
1F
100
AcDbEntity
  8
VISIBLE
100
AcDbEllipse
 10
2.959515871764928
 20
7.532053207080922
 30
0.0
 11
0.006321428571427923
 21
-0.01094903546213111
 31
0.0
210
0.0
220
0.0
230
1.0
 40
0.5773502691896341
 41
0.7853981633974579
 42
2.35619449019237
  0
LINE
  5
1B8
330
1F
100
AcDbEntity
  8
VISIBLE
100
AcDbLine
 10
1.53964545514233
 20
6.565964205257222
 30
0.0
 11
1.533685555129471
 21
6.569405155133989
 31
0.0
  0
LINE
  5
1B9
330
1F
100
AcDbEntity
  8
VISIBLE
100
AcDbLine
 10
1.53964545514233
 20
6.565964205257222
 30
0.0
 11
1.53964545514233
 21
6.520354205160275
 31
0.0
  0
LINE
  5
1BA
330
1F
100
AcDbEntity
  8
VISIBLE
100
AcDbLine
 10
1.539645455142328
 20
5.50101937899006
 30
0.0
 11
1.539645455142328
 21
5.455409378893113
 31
0.0
  0
ELLIPSE
  5
1BB
330
1F
100
AcDbEntity
  8
VISIBLE
100
AcDbEllipse
 10
1.349231700494237
 20
6.60235520732601
 30
0.0
 11
-0.006321428571428367
 21
0.010949035462132
 31
0.0
210
0.0
220
0.0
230
0.9999999999999999
 40
0.5773502691896039
 41
3.92699081698727
 42
5.497787143782142
  0
ELLIPSE
  5
1BC
330
1F
100
AcDbEntity
  8
VISIBLE
100
AcDbEllipse
 10
1.507320573716657
 20
5.459551599948952
 30
0.0
 11
0.02678571428571463
 21
0.04639421805988064
 31
0.0
210
0.0
220
0.0
230
1.0
 40
0.5773502691896358
 41
3.141592653589779
 42
4.949336511765331
  0
ELLIPSE
  5
1BD
330
1F
100
AcDbEntity
  8
VISIBLE
100
AcDbEllipse
 10
1.507320573716657
 20
5.459551599948952
 30
0.0
 11
0.02678571428571463
 21
0.04639421805988064
 31
0.0
210
0.0
220
0.0
230
1.0
 40
0.5773502691896358
 41
2.904645122209142
 42
3.141592653589779
  0
LINE
  5
1BE
330
1F
100
AcDbEntity
  8
VISIBLE
100
AcDbLine
 10
1.349231700494236
 20
6.612678056956311
 30
0.0
 11
1.251196396045445
 21
6.669278766369908
 31
0.0
  0
ELLIPSE
  5
1BF
330
1F
100
AcDbEntity
  8
VISIBLE
100
AcDbEllipse
 10
1.501360673703801
 20
6.527937376092882
 30
0.0
 11
0.02678571428571441
 21
0.04639421805988064
 31
0.0
210
0.0
220
0.0
230
0.9999999999999997
 40
0.5773502691896298
 41
-0.2369475313806373
 42
-0.1114822457514358
  0
LINE
  5
1C0
330
1F
100
AcDbEntity
  8
VISIBLE
100
AcDbLine
 10
2.968455721784216
 20
7.526891782265771
 30
0.0
 11
2.968455721784213
 21
6.144329786017725
 31
0.0
  0
LINE
  5
1C1
330
1F
100
AcDbEntity
  8
VISIBLE
100
AcDbLine
 10
1.53964545514233
 20
6.520354205160275
 30
0.0
 11
1.533685555129471
 21
6.523795155037042
 31
0.0
  0
LINE
  5
1C2
330
1F
100
AcDbEntity
  8
VISIBLE
100
AcDbLine
 10
1.533685555129471
 20
6.523795155037042
 30
0.0
 11
1.533685555129471
 21
6.569405155133989
 31
0.0
  0
LINE
  5
1C3
330
1F
100
AcDbEntity
  8
VISIBLE
100
AcDbLine
 10
1.340291850474948
 20
5.214631786262812
 30
0.0
 11
1.349231700494236
 21
5.209470361447661
 31
0.0
  0
ELLIPSE
  5
1C4
330
1F
100
AcDbEntity
  8
VISIBLE
100
AcDbEllipse
 10
1.501360673703801
 20
6.527937376092882
 30
0.0
 11
0.02678571428571441
 21
0.04639421805988064
 31
0.0
210
0.0
220
0.0
230
0.9999999999999997
 40
0.5773502691896298
 41
3.253074899341205
 42
4.949336511765326
  0
LINE
  5
1C5
330
1F
100
AcDbEntity
  8
VISIBLE
100
AcDbLine
 10
1.474995692290986
 20
5.418083820907845
 30
0.0
 11
1.474995692290986
 21
5.463693821004793
 31
0.0
  0
ELLIPSE
  5
1C6
330
1F
100
AcDbEntity
  8
VISIBLE
100
AcDbEllipse
 10
1.507320573716658
 20
6.524496426216115
 30
0.0
 11
0.02678571428571441
 21
0.04639421805988064
 31
0.0
210
0.0
220
0.0
230
0.9999999999999998
 40
0.5773502691896335
 41
0.0
 42
1.807743858175535
  0
ELLIPSE
  5
1C7
330
1F
100
AcDbEntity
  8
VISIBLE
100
AcDbEllipse
 10
1.507320573716658
 20
6.524496426216115
 30
0.0
 11
0.02678571428571441
 21
0.04639421805988064
 31
0.0
210
0.0
220
0.0
230
0.9999999999999998
 40
0.5773502691896335
 41
-0.2369475313806468
 42
0.0
  0
LINE
  5
1C8
330
1F
100
AcDbEntity
  8
VISIBLE
100
AcDbLine
 10
1.251196396045445
 20
6.669278766369908
 30
0.0
 11
2.836226753702332
 21
7.584396470036824
 31
0.0
  0
ELLIPSE
  5
1C9
330
1F
100
AcDbEntity
  8
VISIBLE
100
AcDbEllipse
 10
1.349231700494235
 20
6.602355207326009
 30
0.0
 11
-0.002107142857144417
 21
0.003649678487378516
 31
0.0
210
0.0
220
0.0
230
0.9999999999999999
 40
0.577350269189882
 41
3.926990816987129
 42
5.497787143782159
  0
LINE
  5
1CA
330
1F
100
AcDbEntity
  8
VISIBLE
100
AcDbLine
 10
1.251196396045445
 20
6.662396866616374
 30
0.0
 11
1.251196396045445
 21
6.669278766369908
 31
0.0
  0
ELLIPSE
  5
1CB
330
1F
100
AcDbEntity
  8
VISIBLE
100
AcDbEllipse
 10
1.349231700494235
 20
5.219793211077961
 30
0.0
 11
0.006321428571428367
 21
-0.010949035462132
 31
0.0
210
0.0
220
0.0
230
0.9999999999999999
 40
0.5773502691896039
 41
0.0
 42
0.7853981633974646
  0
ELLIPSE
  5
1CC
330
1F
100
AcDbEntity
  8
VISIBLE
100
AcDbEllipse
 10
1.349231700494235
 20
5.219793211077961
 30
0.0
 11
0.006321428571428367
 21
-0.010949035462132
 31
0.0
210
0.0
220
0.0
230
0.9999999999999999
 40
0.5773502691896039
 41
-0.7853981633974441
 42
0.0
  0
ELLIPSE
  5
1CD
330
1F
100
AcDbEntity
  8
VISIBLE
100
AcDbEllipse
 10
1.349231700494236
 20
6.602355207326007
 30
0.0
 11
-0.004214285714283728
 21
0.0
 31
0.0
210
0.0
220
0.0
230
1.0
 40
0.5773502691891806
 41
0.7853981633971598
 42
2.356194490192708
  0
LINE
  5
1CE
330
1F
100
AcDbEntity
  8
VISIBLE
100
AcDbLine
 10
1.248216446039017
 20
6.657235441801224
 30
0.0
 11
1.242256546026159
 21
6.653794491924457
 31
0.0
  0
LINE
  5
1CF
330
1F
100
AcDbEntity
  8
VISIBLE
100
AcDbLine
 10
1.358171550513524
 20
6.59719378251086
 30
0.0
 11
1.352211650500666
 21
6.600634732387626
 31
0.0
  0
ELLIPSE
  5
1D0
330
1F
100
AcDbEntity
  8
VISIBLE
100
AcDbEllipse
 10
2.861480567316137
 20
7.56981617394883
 30
0.0
 11
0.03571428571428603
 21
0.0
 31
0.0
210
0.0
220
0.0
230
1.0
 40
0.5773502691896317
 41
0.7853981633974143
 42
2.35619449019237
  0
ELLIPSE
  5
1D1
330
1F
100
AcDbEntity
  8
VISIBLE
100
AcDbEllipse
 10
1.349231700494237
 20
6.60235520732601
 30
0.0
 11
0.01264285714285696
 21
0.0
 31
0.0
210
0.0
220
0.0
230
1.0
 40
0.5773502691896195
 41
3.926990816987235
 42
5.497787143782131
  0
LINE
  5
1D2
330
1F
100
AcDbEntity
  8
VISIBLE
100
AcDbLine
 10
1.242256546026159
 20
6.653794491924457
 30
0.0
 11
1.340291850474949
 21
6.59719378251086
 31
0.0
  0
LINE
  5
1D3
330
1F
100
AcDbEntity
  8
VISIBLE
100
AcDbLine
 10
2.886734380929942
 20
7.584396470036824
 30
0.0
 11
2.959515871764928
 21
7.542376056711222
 31
0.0
  0
ELLIPSE
  5
1D4
330
1F
100
AcDbEntity
  8
VISIBLE
100
AcDbEllipse
 10
1.507320573716658
 20
6.524496426216115
 30
0.0
 11
0.02678571428571441
 21
0.04639421805988064
 31
0.0
210
0.0
220
0.0
230
0.9999999999999998
 40
0.5773502691896335
 41
3.141592653589793
 42
4.949336511765328
  0
ELLIPSE
  5
1D5
330
1F
100
AcDbEntity
  8
VISIBLE
100
AcDbEllipse
 10
1.507320573716658
 20
6.524496426216115
 30
0.0
 11
0.02678571428571441
 21
0.04639421805988064
 31
0.0
210
0.0
220
0.0
230
0.9999999999999998
 40
0.5773502691896335
 41
2.904645122209151
 42
3.141592653589793
  0
LINE
  5
1D6
330
1F
100
AcDbEntity
  8
VISIBLE
100
AcDbLine
 10
1.539645455142328
 20
5.50101937899006
 30
0.0
 11
1.533685555129471
 21
5.504460328866827
 31
0.0
  0
LINE
  5
1D7
330
1F
100
AcDbEntity
  8
VISIBLE
100
AcDbLine
 10
1.340291850474948
 20
5.214631786262812
 30
0.0
 11
1.242256546026157
 21
5.27123249567641
 31
0.0
  0
LINE
  5
1D8
330
1F
100
AcDbEntity
  8
VISIBLE
100
AcDbLine
 10
1.242256546026157
 20
5.27123249567641
 30
0.0
 11
1.242256546026159
 21
6.653794491924457
 31
0.0
  0
LINE
  5
1D9
330
1F
100
AcDbEntity
  8
VISIBLE
100
AcDbLine
 10
1.539645455142328
 20
5.455409378893113
 30
0.0
 11
1.533685555129471
 21
5.458850328769879
 31
0.0
  0
LINE
  5
1DA
330
1F
100
AcDbEntity
  8
VISIBLE
100
AcDbLine
 10
1.346251750487808
 20
6.600634732387626
 30
0.0
 11
1.248216446039017
 21
6.657235441801224
 31
0.0
  0
ELLIPSE
  5
1DB
330
1F
100
AcDbEntity
  8
VISIBLE
100
AcDbEllipse
 10
1.349231700494235
 20
5.219793211077961
 30
0.0
 11
-0.01264285714285696
 21
0.0
 31
0.0
210
0.0
220
0.0
230
1.0
 40
0.5773502691896195
 41
0.7853981633974674
 42
2.356194490192338
  0
LINE
  5
1DC
330
1F
100
AcDbEntity
  8
VISIBLE
100
AcDbLine
 10
1.355553129065664
 20
5.208844175615829
 30
0.0
 11
2.965837300336355
 21
6.138542175370743
 31
0.0
  0
LINE
  5
1DD
330
1F
100
AcDbEntity
  8
VISIBLE
100
AcDbLine
 10
2.968455721784215
 20
6.159784899871001
 30
0.0
 11
2.969162828565401
 21
6.160193148161465
 31
0.0
  0
ELLIPSE
  5
1DE
330
1F
100
AcDbEntity
  8
VISIBLE
100
AcDbEllipse
 10
2.956737952267409
 20
7.526250249237903
 30
0.0
 11
-0.01757142857142791
 21
0.0
 31
0.0
210
0.0
220
0.0
230
1.0
 40
0.5773502691896252
 41
-3.141592653589793
 42
-2.150458788024053
  0
ELLIPSE
  5
1DF
330
1F
100
AcDbEntity
  8
VISIBLE
100
AcDbEllipse
 10
2.956737952267409
 20
7.526250249237903
 30
0.0
 11
-0.01757142857142791
 21
0.0
 31
0.0
210
0.0
220
0.0
230
1.0
 40
0.5773502691896252
 41
2.356194490192322
 42
3.141592653589793
  0
LINE
  5
1E0
330
1F
100
AcDbEntity
  8
VISIBLE
100
AcDbLine
 10
2.969162828565402
 20
7.519076743562609
 30
0.0
 11
2.968455721784215
 21
7.518668495272146
 31
0.0
  0
ELLIPSE
  5
1E1
330
1F
100
AcDbEntity
  8
VISIBLE
100
AcDbEllipse
 10
2.956737952267408
 20
6.167366653836758
 30
0.0
 11
-0.01757142857142835
 21
0.0
 31
0.0
210
0.0
220
0.0
230
1.0
 40
0.5773502691896105
 41
2.356194490192354
 42
3.141592653589881
  0
LINE
  5
1E2
330
1F
100
AcDbEntity
  8
VISIBLE
100
AcDbLine
 10
2.974309380838839
 20
7.526250249237904
 30
0.0
 11
2.974309380838835
 21
6.167366653836757
 31
0.0
  0
ELLIPSE
  5
1E3
330
1F
100
AcDbEntity
  8
VISIBLE
100
AcDbEllipse
 10
2.74632317723718
 20
6.663894829083157
 30
0.0
 11
-0.03791885536996586
 21
-0.06567738406563617
 31
0.0
210
0.0
220
0.0
230
0.9999999999999999
 40
0.5773502691896237
 41
-3.141592653589828
 42
-0.7853981633974532
  0
ELLIPSE
  5
1E4
330
1F
100
AcDbEntity
  8
VISIBLE
100
AcDbEllipse
 10
2.74632317723718
 20
6.663894829083157
 30
0.0
 11
-0.03791885536996586
 21
-0.06567738406563617
 31
0.0
210
0.0
220
0.0
230
0.9999999999999999
 40
0.5773502691896237
 41
0.0
 42
3.141592653589758
  0
ELLIPSE
  5
1E5
330
1F
100
AcDbEntity
  8
VISIBLE
100
AcDbEllipse
 10
2.74632317723718
 20
6.663894829083157
 30
0.0
 11
-0.03791885536996586
 21
-0.06567738406563617
 31
0.0
210
0.0
220
0.0
230
0.9999999999999999
 40
0.5773502691896237
 41
-0.7853981633974529
 42
0.0
  0
ELLIPSE
  5
1E6
330
1F
100
AcDbEntity
  8
VISIBLE
100
AcDbEllipse
 10
2.695310473737295
 20
6.693347027180907
 30
0.0
 11
-0.04167857142857301
 21
-0.07218940330117363
 31
0.0
210
0.0
220
0.0
230
1.0
 40
0.5773502691896316
 41
-3.141592653589784
 42
0.0
  0
ELLIPSE
  5
1E7
330
1F
100
AcDbEntity
  8
VISIBLE
100
AcDbEllipse
 10
2.746323177237181
 20
6.663894829083157
 30
0.0
 11
-0.04167857142857256
 21
-0.07218940330117363
 31
0.0
210
0.0
220
0.0
230
1.0
 40
0.5773502691896232
 41
0.7853981633974684
 42
3.141592653589801
  0
ELLIPSE
  5
1E8
330
1F
100
AcDbEntity
  8
VISIBLE
100
AcDbEllipse
 10
2.746323177237181
 20
6.663894829083157
 30
0.0
 11
-0.04167857142857256
 21
-0.07218940330117363
 31
0.0
210
0.0
220
0.0
230
1.0
 40
0.5773502691896232
 41
-3.141592653589785
 42
0.0
  0
ELLIPSE
  5
1E9
330
1F
100
AcDbEntity
  8
VISIBLE
100
AcDbEllipse
 10
2.746323177237181
 20
6.663894829083157
 30
0.0
 11
-0.04167857142857256
 21
-0.07218940330117363
 31
0.0
210
0.0
220
0.0
230
1.0
 40
0.5773502691896232
 41
0.0
 42
0.7853981633974684
  0
ELLIPSE
  5
1EA
330
1F
100
AcDbEntity
  8
VISIBLE
100
AcDbEllipse
 10
2.744302872148077
 20
6.665061252770196
 30
0.0
 11
-0.03791885536996675
 21
-0.06567738406563615
 31
0.0
210
0.0
220
0.0
230
1.0
 40
0.5773502691896261
 41
0.0266430000052816
 42
3.114949653584543
  0
LINE
  5
1EB
330
1F
100
AcDbEntity
  8
VISIBLE
100
AcDbLine
 10
2.653631902308723
 20
6.621157623879734
 30
0.0
 11
2.70464460580861
 21
6.591705425781983
 31
0.0
  0
LINE
  5
1EC
330
1F
100
AcDbEntity
  8
VISIBLE
100
AcDbLine
 10
2.736989045165867
 20
6.765536430482081
 30
0.0
 11
2.788001748665753
 21
6.73608423238433
 31
0.0
  0
LINE
  5
1ED
330
1F
100
AcDbEntity
  8
TANGENT_EDGES
100
AcDbLine
 10
0.4729748757224205
 20
7.115319184293861
 30
0.0
 11
0.4759548257288493
 21
7.117039659232245
 31
0.0
  0
LINE
  5
1EE
330
1F
100
AcDbEntity
  8
TANGENT_EDGES
100
AcDbLine
 10
0.4759548257288519
 20
7.12392155898578
 30
0.0
 11
2.059267924059987
 21
8.038047802518722
 31
0.0
  0
LINE
  5
1EF
330
1F
100
AcDbEntity
  8
TANGENT_EDGES
100
AcDbLine
 10
0.46701497570956
 20
5.750136900982692
 30
0.0
 11
0.4670149757095649
 21
7.108437284540329
 31
0.0
  0
LINE
  5
1F0
330
1F
100
AcDbEntity
  8
TANGENT_EDGES
100
AcDbLine
 10
1.327513420786385
 20
6.611628275637991
 30
0.0
 11
1.327513420786385
 21
6.611453312084912
 31
0.0
  0
LINE
  5
1F1
330
1F
100
AcDbEntity
  8
TANGENT_EDGES
100
AcDbLine
 10
1.34539312082496
 20
6.601130462454611
 30
0.0
 11
1.34539312082496
 21
6.608012362208145
 31
0.0
  0
LINE
  5
1F2
330
1F
100
AcDbEntity
  8
TANGENT_EDGES
100
AcDbLine
 10
0.472974875722423
 20
7.1118782344171
 30
0.0
 11
0.4729748757224231
 21
7.115319184293867
 31
0.0
  0
ELLIPSE
  5
1F3
330
1F
100
AcDbEntity
  8
TANGENT_EDGES
100
AcDbEllipse
 10
2.727663626760961
 20
6.854913794788402
 30
0.0
 11
-0.00878571428571373
 21
-0.0152173035236407
 31
0.0
210
0.0
220
0.0
230
1.0
 40
0.5773502691896154
 41
0.0
 42
6.283185307179586
  0
ELLIPSE
  5
1F4
330
1F
100
AcDbEntity
  8
TANGENT_EDGES
100
AcDbEllipse
 10
2.876999418135358
 20
7.238289668379753
 30
0.0
 11
-0.008785714285714619
 21
-0.0152173035236407
 31
0.0
210
0.0
220
0.0
230
0.9999999999999998
 40
0.5773502691896261
 41
0.0
 42
6.283185307179586
  0
ELLIPSE
  5
1F5
330
1F
100
AcDbEntity
  8
TANGENT_EDGES
100
AcDbEllipse
 10
2.579611056284687
 20
7.067251205469789
 30
0.0
 11
-0.00878571428571462
 21
-0.01521730352364159
 31
0.0
210
0.0
220
0.0
230
0.9999999999999997
 40
0.5773502691895754
 41
0.0
 42
6.283185307179586
  0
LINE
  5
1F6
330
1F
100
AcDbEntity
  8
TANGENT_EDGES
100
AcDbLine
 10
1.358171550513524
 20
6.59719378251086
 30
0.0
 11
2.968455721784216
 21
7.526891782265771
 31
0.0
  0
LINE
  5
1F7
330
1F
100
AcDbEntity
  8
TANGENT_EDGES
100
AcDbLine
 10
1.358171550513522
 20
5.214631786262811
 30
0.0
 11
1.358171550513524
 21
6.59719378251086
 31
0.0
  0
LINE
  5
1F8
330
1F
100
AcDbEntity
  8
TANGENT_EDGES
100
AcDbLine
 10
2.959515871764928
 20
7.542376056711222
 30
0.0
 11
1.349231700494237
 21
6.612678056956311
 31
0.0
  0
LINE
  5
1F9
330
1F
100
AcDbEntity
  8
TANGENT_EDGES
100
AcDbLine
 10
1.340291850474949
 20
6.59719378251086
 30
0.0
 11
1.340291850474948
 21
5.214631786262811
 31
0.0
  0
LINE
  5
1FA
330
1F
100
AcDbEntity
  8
TANGENT_EDGES
100
AcDbLine
 10
2.968455721784213
 20
6.144329786017725
 30
0.0
 11
1.358171550513522
 21
5.214631786262811
 31
0.0
  0
LINE
  5
1FB
330
1F
100
AcDbEntity
  8
TANGENT_EDGES
100
AcDbLine
 10
2.969162828565402
 20
7.519076743562609
 30
0.0
 11
2.969162828565401
 21
6.160193148161464
 31
0.0
  0
LINE
  5
1FC
330
1F
100
AcDbEntity
  8
VISIBLE
100
AcDbLine
 10
9.283582851564713
 20
6.247134845909891
 30
0.0
 11
9.505816411366201
 21
6.375441451484249
 31
0.0
  0
LINE
  5
1FD
330
1F
100
AcDbEntity
  8
VISIBLE
100
AcDbLine
 10
9.283582851564711
 20
5.891375621362808
 30
0.0
 11
9.283582851564713
 21
5.897207739798007
 31
0.0
  0
LINE
  5
1FE
330
1F
100
AcDbEntity
  8
VISIBLE
100
AcDbLine
 10
9.283582851564713
 20
6.066339174418751
 30
0.0
 11
9.283582851564713
 21
6.072171292853949
 31
0.0
  0
ELLIPSE
  5
1FF
330
1F
100
AcDbEntity
  8
VISIBLE
100
AcDbEllipse
 10
9.097159199467605
 20
6.929405221051546
 30
0.0
 11
0.0021071428571382
 21
0.00364967848736697
 31
0.0
210
0.0
220
0.0
230
0.9999999999999998
 40
0.5773502691879917
 41
0.7853981633991705
 42
2.356194490195672
  0
LINE
  5
200
330
1F
100
AcDbEntity
  8
VISIBLE
100
AcDbLine
 10
9.803811412009107
 20
6.191729720775512
 30
0.0
 11
9.58157785220762
 21
6.063423115201154
 31
0.0
  0
LINE
  5
201
330
1F
100
AcDbEntity
  8
VISIBLE
100
AcDbLine
 10
9.097159199467615
 20
6.932846170928305
 30
0.0
 11
9.957657644544419
 21
7.429655179830658
 31
0.0
  0
LINE
  5
202
330
1F
100
AcDbEntity
  8
VISIBLE
100
AcDbLine
 10
9.5058164113662
 20
6.19464577999311
 30
0.0
 11
9.500765648643439
 21
6.197561839210708
 31
0.0
  0
LINE
  5
203
330
1F
100
AcDbEntity
  8
VISIBLE
100
AcDbLine
 10
9.1060990494869
 20
6.924243796236392
 30
0.0
 11
9.966597494563706
 21
7.421052805138741
 31
0.0
  0
LINE
  5
204
330
1F
100
AcDbEntity
  8
VISIBLE
100
AcDbLine
 10
9.803811412009106
 20
6.541656826887396
 30
0.0
 11
9.798760649286345
 21
6.544572886104995
 31
0.0
  0
LINE
  5
205
330
1F
100
AcDbEntity
  8
VISIBLE
100
AcDbLine
 10
9.803811412009107
 20
6.541656826887396
 30
0.0
 11
9.58157785220762
 21
6.413350221313038
 31
0.0
  0
ELLIPSE
  5
206
330
1F
100
AcDbEntity
  8
VISIBLE
100
AcDbEllipse
 10
9.957657644544419
 20
7.42621422995389
 30
0.0
 11
0.006321428571428811
 21
0.01094903546213288
 31
0.0
210
0.0
220
0.0
230
1.0
 40
0.577350269189609
 41
0.0
 42
0.7853981633974337
  0
ELLIPSE
  5
207
330
1F
100
AcDbEntity
  8
VISIBLE
100
AcDbEllipse
 10
9.957657644544419
 20
7.42621422995389
 30
0.0
 11
0.006321428571428811
 21
0.01094903546213288
 31
0.0
210
0.0
220
0.0
230
1.0
 40
0.577350269189609
 41
-0.7853981633973801
 42
0.0
  0
LINE
  5
208
330
1F
100
AcDbEntity
  8
VISIBLE
100
AcDbLine
 10
9.505816411366201
 20
6.194645779993109
 30
0.0
 11
9.283582851564713
 21
6.066339174418751
 31
0.0
  0
LINE
  5
209
330
1F
100
AcDbEntity
  8
VISIBLE
100
AcDbLine
 10
9.505816411366201
 20
6.375441451484249
 30
0.0
 11
9.505816411366201
 21
6.369609333049051
 31
0.0
  0
LINE
  5
20A
330
1F
100
AcDbEntity
  8
VISIBLE
100
AcDbLine
 10
9.803811412009106
 20
6.191729720775512
 30
0.0
 11
9.798760649286345
 21
6.194645779993111
 31
0.0
  0
LINE
  5
20B
330
1F
100
AcDbEntity
  8
VISIBLE
100
AcDbLine
 10
9.957657644544419
 20
7.436537079584193
 30
0.0
 11
9.15699178230019
 21
6.974272428486536
 31
0.0
  0
LINE
  5
20C
330
1F
100
AcDbEntity
  8
VISIBLE
100
AcDbLine
 10
9.9665974945637
 20
6.062752421581109
 30
0.0
 11
9.10897275853508
 21
5.567602549371303
 31
0.0
  0
LINE
  5
20D
330
1F
100
AcDbEntity
  8
VISIBLE
100
AcDbLine
 10
9.086199044359223
 20
6.925410219923426
 30
0.0
 11
9.088219349448329
 21
6.924243796236387
 31
0.0
  0
ELLIPSE
  5
20E
330
1F
100
AcDbEntity
  8
VISIBLE
100
AcDbEllipse
 10
9.097159199467615
 20
6.929405221051538
 30
0.0
 11
-0.006321428571428811
 21
-0.010949035462132
 31
0.0
210
0.0
220
0.0
230
1.0
 40
0.577350269189644
 41
-1.515125819625433
 42
-0.7853981633973087
  0
LINE
  5
20F
330
1F
100
AcDbEntity
  8
VISIBLE
100
AcDbLine
 10
9.58157785220762
 20
6.238386668257096
 30
0.0
 11
9.58157785220762
 21
6.244218786692294
 31
0.0
  0
ELLIPSE
  5
210
330
1F
100
AcDbEntity
  8
VISIBLE
100
AcDbEllipse
 10
9.097159199467614
 20
6.929405221051543
 30
0.0
 11
0.01264285714285762
 21
0.0
 31
0.0
210
0.0
220
0.0
230
1.0
 40
0.5773502691896594
 41
3.926990816987138
 42
5.497787143782141
  0
LINE
  5
211
330
1F
100
AcDbEntity
  8
VISIBLE
100
AcDbLine
 10
9.283582851564713
 20
6.241302727474693
 30
0.0
 11
9.283582851564713
 21
6.247134845909891
 31
0.0
  0
LINE
  5
212
330
1F
100
AcDbEntity
  8
VISIBLE
100
AcDbLine
 10
9.283582851564713
 20
5.897207739798007
 30
0.0
 11
9.5058164113662
 21
6.025514345372365
 31
0.0
  0
LINE
  5
213
330
1F
100
AcDbEntity
  8
VISIBLE
100
AcDbLine
 10
9.094179249461186
 20
6.927684746113155
 30
0.0
 11
9.088219349448329
 21
6.924243796236388
 31
0.0
  0
LINE
  5
214
330
1F
100
AcDbEntity
  8
VISIBLE
100
AcDbLine
 10
9.505816411366201
 20
6.019682226937166
 30
0.0
 11
9.283582851564711
 21
5.891375621362808
 31
0.0
  0
LINE
  5
215
330
1F
100
AcDbEntity
  8
VISIBLE
100
AcDbLine
 10
9.58157785220762
 20
6.244218786692294
 30
0.0
 11
9.803811412009107
 21
6.372525392266652
 31
0.0
  0
LINE
  5
216
330
1F
100
AcDbEntity
  8
VISIBLE
100
AcDbLine
 10
9.803811412009107
 20
6.19756183921071
 30
0.0
 11
9.803811412009106
 21
6.191729720775512
 31
0.0
  0
LINE
  5
217
330
1F
100
AcDbEntity
  8
VISIBLE
100
AcDbLine
 10
9.505816411366201
 20
6.200477898428307
 30
0.0
 11
9.505816411366201
 21
6.194645779993109
 31
0.0
  0
ELLIPSE
  5
218
330
1F
100
AcDbEntity
  8
VISIBLE
100
AcDbEllipse
 10
9.850834012958021
 20
7.380811186401109
 30
0.0
 11
0.008928571428571175
 21
-0.01546473935329384
 31
0.0
210
0.0
220
0.0
230
1.0
 40
0.5773502691896121
 41
0.7853455318182675
 42
0.899177693286474
  0
ELLIPSE
  5
219
330
1F
100
AcDbEntity
  8
VISIBLE
100
AcDbEllipse
 10
9.85083401295802
 20
7.351650594225115
 30
0.0
 11
0.01339285714285943
 21
-0.02319710902994476
 31
0.0
210
0.0
220
0.0
230
1.0
 40
0.5773502691896196
 41
-2.12700846885691
 42
-1.881228498005383
  0
ELLIPSE
  5
21A
330
1F
100
AcDbEntity
  8
VISIBLE
100
AcDbEllipse
 10
9.097159199467615
 20
6.929405221051559
 30
0.0
 11
-0.004214285714299493
 21
-1.776356839400250E-15
 31
0.0
210
0.0
220
0.0
230
1.0
 40
0.5773502691916574
 41
0.785398163399536
 42
2.35619449018839
  0
ELLIPSE
  5
21B
330
1F
100
AcDbEntity
  8
VISIBLE
100
AcDbEllipse
 10
8.374344546213266
 20
8.340340473486844
 30
0.0
 11
0.006321428571428811
 21
0.01094903546213288
 31
0.0
210
0.0
220
0.0
230
1.0
 40
0.577350269189609
 41
0.0
 42
0.7853981633974337
  0
LINE
  5
21C
330
1F
100
AcDbEntity
  8
VISIBLE
100
AcDbLine
 10
7.629021934006802
 20
6.555168829015454
 30
0.0
 11
7.581709909338985
 21
6.527853218837581
 31
0.0
  0
LINE
  5
21D
330
1F
100
AcDbEntity
  8
VISIBLE
100
AcDbLine
 10
9.803811412009106
 20
6.366693273831454
 30
0.0
 11
9.798760649286345
 21
6.369609333049054
 31
0.0
  0
LINE
  5
21E
330
1F
100
AcDbEntity
  8
VISIBLE
100
AcDbLine
 10
9.803811412009107
 20
6.547488945322594
 30
0.0
 11
9.803811412009107
 21
6.541656826887396
 31
0.0
  0
ELLIPSE
  5
21F
330
1F
100
AcDbEntity
  8
VISIBLE
100
AcDbEllipse
 10
9.957657644544419
 20
7.426214229953891
 30
0.0
 11
0.01264285714285585
 21
0.0
 31
0.0
210
0.0
220
0.0
230
1.0
 40
0.5773502691896703
 41
0.0
 42
0.7853981633977071
  0
ELLIPSE
  5
220
330
1F
100
AcDbEntity
  8
VISIBLE
100
AcDbEllipse
 10
9.957657644544419
 20
7.426214229953891
 30
0.0
 11
0.01264285714285585
 21
0.0
 31
0.0
210
0.0
220
0.0
230
1.0
 40
0.5773502691896703
 41
5.49778714378215
 42
6.283185307179586
  0
LINE
  5
221
330
1F
100
AcDbEntity
  8
VISIBLE
100
AcDbLine
 10
7.616692358208612
 20
6.491872347507554
 30
0.0
 11
7.605656239399524
 21
6.498244053672789
 31
0.0
  0
ELLIPSE
  5
222
330
1F
100
AcDbEntity
  8
VISIBLE
100
AcDbEllipse
 10
9.957657644544414
 20
6.06791384639626
 30
0.0
 11
0.01264285714285762
 21
0.0
 31
0.0
210
0.0
220
0.0
230
1.0
 40
0.5773502691895891
 41
5.49778714378208
 42
6.283185307179586
  0
LINE
  5
223
330
1F
100
AcDbEntity
  8
VISIBLE
100
AcDbLine
 10
9.960637594550848
 20
7.424493755015508
 30
0.0
 11
9.100139149474042
 21
6.92768474611316
 31
0.0
  0
LINE
  5
224
330
1F
100
AcDbEntity
  8
VISIBLE
100
AcDbLine
 10
9.088219349448325
 20
6.924243796236391
 30
0.0
 11
9.088219349448325
 21
6.922902408996291
 31
0.0
  0
ELLIPSE
  5
225
330
1F
100
AcDbEntity
  8
VISIBLE
100
AcDbEllipse
 10
9.856793912970879
 20
7.355091544101882
 30
0.0
 11
0.01339285714285765
 21
-0.02319710902994387
 31
0.0
210
0.0
220
0.0
230
1.0
 40
0.5773502691896223
 41
-2.127008468856836
 42
-1.881228498005357
  0
LINE
  5
226
330
1F
100
AcDbEntity
  8
VISIBLE
100
AcDbLine
 10
9.505816411366201
 20
6.369609333049052
 30
0.0
 11
9.500765648643439
 21
6.372525392266651
 31
0.0
  0
ELLIPSE
  5
227
330
1F
100
AcDbEntity
  8
VISIBLE
100
AcDbEllipse
 10
9.957657644544419
 20
7.426214229953891
 30
0.0
 11
0.004214285714285282
 21
0.0
 31
0.0
210
0.0
220
0.0
230
1.0
 40
0.5773502691896
 41
0.0
 42
0.7853981633983507
  0
ELLIPSE
  5
228
330
1F
100
AcDbEntity
  8
VISIBLE
100
AcDbEllipse
 10
9.957657644544419
 20
7.426214229953891
 30
0.0
 11
0.004214285714285282
 21
0.0
 31
0.0
210
0.0
220
0.0
230
1.0
 40
0.5773502691896
 41
5.497787143782348
 42
6.283185307179586
  0
LINE
  5
229
330
1F
100
AcDbEntity
  8
VISIBLE
100
AcDbLine
 10
9.505816411366201
 20
6.025514345372365
 30
0.0
 11
9.5058164113662
 21
6.019682226937166
 31
0.0
  0
ELLIPSE
  5
22A
330
1F
100
AcDbEntity
  8
VISIBLE
100
AcDbEllipse
 10
9.957657644544415
 20
7.426214229953887
 30
0.0
 11
0.002107142857147082
 21
0.003649678487381181
 31
0.0
210
0.0
220
0.0
230
1.0
 40
0.577350269189201
 41
0.0
 42
0.7853981633982839
  0
ELLIPSE
  5
22B
330
1F
100
AcDbEntity
  8
VISIBLE
100
AcDbEllipse
 10
9.957657644544415
 20
7.426214229953887
 30
0.0
 11
0.002107142857147082
 21
0.003649678487381181
 31
0.0
210
0.0
220
0.0
230
1.0
 40
0.577350269189201
 41
-0.7853981633966282
 42
0.0
  0
LINE
  5
22C
330
1F
100
AcDbEntity
  8
VISIBLE
100
AcDbLine
 10
7.592991553002129
 20
7.89954896215457
 30
0.0
 11
8.374344546213266
 21
8.350663323117145
 31
0.0
  0
LINE
  5
22D
330
1F
100
AcDbEntity
  8
VISIBLE
100
AcDbLine
 10
7.584540535974889
 20
6.522605582134275
 30
0.0
 11
7.632151207383745
 21
6.550093616088478
 31
0.0
  0
LINE
  5
22E
330
1F
100
AcDbEntity
  8
VISIBLE
100
AcDbLine
 10
9.5058164113662
 20
6.019682226937167
 30
0.0
 11
9.500765648643437
 21
6.022598286154766
 31
0.0
  0
LINE
  5
22F
330
1F
100
AcDbEntity
  8
VISIBLE
100
AcDbLine
 10
9.863460919747434
 20
7.3735202709832
 30
0.0
 11
9.863460685840106
 21
7.368388640612347
 31
0.0
  0
LINE
  5
230
330
1F
100
AcDbEntity
  8
VISIBLE
100
AcDbLine
 10
9.58157785220762
 20
6.413350221313038
 30
0.0
 11
9.58157785220762
 21
6.419182339748236
 31
0.0
  0
LINE
  5
231
330
1F
100
AcDbEntity
  8
VISIBLE
100
AcDbLine
 10
9.58157785220762
 20
6.063423115201154
 30
0.0
 11
9.58157785220762
 21
6.069255233636352
 31
0.0
  0
LINE
  5
232
330
1F
100
AcDbEntity
  8
VISIBLE
100
AcDbLine
 10
9.966597494563706
 20
7.431375654769042
 30
0.0
 11
9.960637594550848
 21
7.427934704892275
 31
0.0
  0
LINE
  5
233
330
1F
100
AcDbEntity
  8
VISIBLE
100
AcDbLine
 10
9.283582851564713
 20
6.072171292853949
 30
0.0
 11
9.505816411366201
 21
6.200477898428307
 31
0.0
  0
LINE
  5
234
330
1F
100
AcDbEntity
  8
VISIBLE
100
AcDbLine
 10
9.58157785220762
 20
6.419182339748236
 30
0.0
 11
9.803811412009107
 21
6.547488945322594
 31
0.0
  0
LINE
  5
235
330
1F
100
AcDbEntity
  8
VISIBLE
100
AcDbLine
 10
9.803811412009107
 20
6.372525392266652
 30
0.0
 11
9.803811412009107
 21
6.366693273831454
 31
0.0
  0
LINE
  5
236
330
1F
100
AcDbEntity
  8
VISIBLE
100
AcDbLine
 10
9.094179249461183
 20
6.927684746113159
 30
0.0
 11
9.088219349448325
 21
6.924243796236392
 31
0.0
  0
LINE
  5
237
330
1F
100
AcDbEntity
  8
VISIBLE
100
AcDbLine
 10
9.505816411366201
 20
6.369609333049051
 30
0.0
 11
9.283582851564713
 21
6.241302727474693
 31
0.0
  0
LINE
  5
238
330
1F
100
AcDbEntity
  8
VISIBLE
100
AcDbLine
 10
9.58157785220762
 20
6.069255233636352
 30
0.0
 11
9.803811412009106
 21
6.19756183921071
 31
0.0
  0
LINE
  5
239
330
1F
100
AcDbEntity
  8
VISIBLE
100
AcDbLine
 10
9.086199044359223
 20
6.925410219923426
 30
0.0
 11
9.085037368932985
 21
6.924739526303378
 31
0.0
  0
LINE
  5
23A
330
1F
100
AcDbEntity
  8
VISIBLE
100
AcDbLine
 10
9.803811412009107
 20
6.366693273831454
 30
0.0
 11
9.58157785220762
 21
6.238386668257096
 31
0.0
  0
LINE
  5
23B
330
1F
100
AcDbEntity
  8
VISIBLE
100
AcDbLine
 10
9.963979073115842
 20
7.437163265416014
 30
0.0
 11
8.380665974784703
 21
8.35128950894896
 31
0.0
  0
LINE
  5
23C
330
1F
100
AcDbEntity
  8
VISIBLE
100
AcDbLine
 10
9.970300501687271
 20
7.426214229953882
 30
0.0
 11
9.970300501687268
 21
6.06791384639626
 31
0.0
  0
ELLIPSE
  5
23D
330
1F
100
AcDbEntity
  8
VISIBLE
100
AcDbEllipse
 10
8.767950485198034
 20
6.761421821791475
 30
0.0
 11
0.1428571428571423
 21
-0.2474358296526979
 31
0.0
210
0.0
220
0.0
230
1.0
 40
0.5773502691896207
 41
0.0
 42
0.7862243153949805
  0
ELLIPSE
  5
23E
330
1F
100
AcDbEntity
  8
VISIBLE
100
AcDbEllipse
 10
8.767950485198034
 20
6.761421821791475
 30
0.0
 11
0.1428571428571423
 21
-0.2474358296526979
 31
0.0
210
0.0
220
0.0
230
1.0
 40
0.5773502691896207
 41
0.7862243153949805
 42
3.141592653589796
  0
ELLIPSE
  5
23F
330
1F
100
AcDbEntity
  8
VISIBLE
100
AcDbEllipse
 10
8.793204298811839
 20
6.77600211787947
 30
0.0
 11
0.1428571428571423
 21
-0.2474358296526979
 31
0.0
210
0.0
220
0.0
230
1.0
 40
0.5773502691896207
 41
0.7862243153949845
 42
3.141592653589787
  0
ELLIPSE
  5
240
330
1F
100
AcDbEntity
  8
VISIBLE
100
AcDbEllipse
 10
8.793204298811839
 20
6.77600211787947
 30
0.0
 11
0.1428571428571423
 21
-0.2474358296526979
 31
0.0
210
0.0
220
0.0
230
1.0
 40
0.5773502691896207
 41
0.0
 42
0.7862243153949845
  0
LINE
  5
241
330
1F
100
AcDbEntity
  8
VISIBLE
100
AcDbLine
 10
8.910807628055178
 20
6.513985992138774
 30
0.0
 11
8.936061441668983
 21
6.528566288226769
 31
0.0
  0
LINE
  5
242
330
1F
100
AcDbEntity
  8
VISIBLE
100
AcDbLine
 10
8.625093342340895
 20
7.008857651444169
 30
0.0
 11
8.6503471559547
 21
7.023437947532163
 31
0.0
  0
ELLIPSE
  5
243
330
1F
100
AcDbEntity
  8
VISIBLE
100
AcDbEllipse
 10
8.760374341113891
 20
6.757047732965066
 30
0.0
 11
-0.09590357308262121
 21
0.166109861206496
 31
0.0
210
0.0
220
0.0
230
1.0
 40
0.5773502691896208
 41
-1.311201425275291
 42
0.0
  0
ELLIPSE
  5
244
330
1F
100
AcDbEntity
  8
VISIBLE
100
AcDbEllipse
 10
8.760374341113891
 20
6.757047732965066
 30
0.0
 11
-0.09590357308262121
 21
0.166109861206496
 31
0.0
210
0.0
220
0.0
230
1.0
 40
0.5773502691896208
 41
0.0
 42
3.141592653589778
  0
ELLIPSE
  5
245
330
1F
100
AcDbEntity
  8
VISIBLE
100
AcDbEllipse
 10
8.760374341113891
 20
6.757047732965066
 30
0.0
 11
-0.09590357308262121
 21
0.166109861206496
 31
0.0
210
0.0
220
0.0
230
1.0
 40
0.5773502691896208
 41
3.141592653589778
 42
4.971983881904295
  0
ELLIPSE
  5
246
330
1F
100
AcDbEntity
  8
VISIBLE
100
AcDbEllipse
 10
8.767950485198032
 20
6.761421821791465
 30
0.0
 11
-0.1428571428571406
 21
0.2474358296526971
 31
0.0
210
0.0
220
0.0
230
1.0
 40
0.5773502691896156
 41
-1.3112014252753
 42
0.0
  0
ELLIPSE
  5
247
330
1F
100
AcDbEntity
  8
VISIBLE
100
AcDbEllipse
 10
8.767950485198032
 20
6.761421821791465
 30
0.0
 11
-0.1428571428571406
 21
0.2474358296526971
 31
0.0
210
0.0
220
0.0
230
1.0
 40
0.5773502691896156
 41
3.141592653589799
 42
4.971983881904286
  0
ELLIPSE
  5
248
330
1F
100
AcDbEntity
  8
VISIBLE
100
AcDbEllipse
 10
8.760374341113891
 20
6.757047732965066
 30
0.0
 11
-0.1428571428571423
 21
0.2474358296526979
 31
0.0
210
0.0
220
0.0
230
1.0
 40
0.5773502691896207
 41
3.141592653589783
 42
4.971983881904293
  0
ELLIPSE
  5
249
330
1F
100
AcDbEntity
  8
VISIBLE
100
AcDbEllipse
 10
8.760374341113891
 20
6.757047732965066
 30
0.0
 11
-0.1428571428571423
 21
0.2474358296526979
 31
0.0
210
0.0
220
0.0
230
1.0
 40
0.5773502691896207
 41
0.0
 42
3.141592653589783
  0
ELLIPSE
  5
24A
330
1F
100
AcDbEntity
  8
VISIBLE
100
AcDbEllipse
 10
8.760374341113891
 20
6.757047732965066
 30
0.0
 11
-0.1428571428571423
 21
0.2474358296526979
 31
0.0
210
0.0
220
0.0
230
1.0
 40
0.5773502691896207
 41
-1.311201425275293
 42
0.0
  0
ELLIPSE
  5
24B
330
1F
100
AcDbEntity
  8
VISIBLE
100
AcDbEllipse
 10
8.759897536439611
 20
6.559031753813174
 30
0.0
 11
-0.006750000000000255
 21
0.01169134295108964
 31
0.0
210
0.0
220
0.0
230
1.0
 40
0.5773502691896435
 41
3.141592653589793
 42
4.971983881904271
  0
ELLIPSE
  5
24C
330
1F
100
AcDbEntity
  8
VISIBLE
100
AcDbEllipse
 10
8.759897536439611
 20
6.559031753813174
 30
0.0
 11
-0.006750000000000255
 21
0.01169134295108964
 31
0.0
210
0.0
220
0.0
230
1.0
 40
0.5773502691896435
 41
0.0
 42
3.141592653589793
  0
ELLIPSE
  5
24D
330
1F
100
AcDbEntity
  8
VISIBLE
100
AcDbEllipse
 10
8.759897536439611
 20
6.559031753813174
 30
0.0
 11
-0.006750000000000255
 21
0.01169134295108964
 31
0.0
210
0.0
220
0.0
230
1.0
 40
0.5773502691896435
 41
-1.311201425275315
 42
0.0
  0
ELLIPSE
  5
24E
330
1F
100
AcDbEntity
  8
VISIBLE
100
AcDbEllipse
 10
8.909233327814006
 20
6.769969508705218
 30
0.0
 11
-0.006750000000000255
 21
0.01169134295108964
 31
0.0
210
0.0
220
0.0
230
1.0
 40
0.5773502691896435
 41
3.141592653589595
 42
4.971983881904426
  0
ELLIPSE
  5
24F
330
1F
100
AcDbEntity
  8
VISIBLE
100
AcDbEllipse
 10
8.909233327814006
 20
6.769969508705218
 30
0.0
 11
-0.006750000000000255
 21
0.01169134295108964
 31
0.0
210
0.0
220
0.0
230
1.0
 40
0.5773502691896435
 41
0.0
 42
3.141592653589595
  0
ELLIPSE
  5
250
330
1F
100
AcDbEntity
  8
VISIBLE
100
AcDbEllipse
 10
8.909233327814006
 20
6.769969508705218
 30
0.0
 11
-0.006750000000000255
 21
0.01169134295108964
 31
0.0
210
0.0
220
0.0
230
1.0
 40
0.5773502691896435
 41
-1.31120142527516
 42
0.0
  0
ELLIPSE
  5
251
330
1F
100
AcDbEntity
  8
VISIBLE
100
AcDbEllipse
 10
8.767950485198032
 20
6.761421821791465
 30
0.0
 11
-0.09590357308261943
 21
0.166109861206496
 31
0.0
210
0.0
220
0.0
230
1.0
 40
0.5773502691896132
 41
0.0395090360774633
 42
3.102083617512349
  0
ELLIPSE
  5
252
330
1F
100
AcDbEntity
  8
VISIBLE
100
AcDbEllipse
 10
8.61184496596334
 20
6.942325547331945
 30
0.0
 11
-0.006750000000000255
 21
0.01169134295108964
 31
0.0
210
0.0
220
0.0
230
1.0
 40
0.5773502691896435
 41
3.141592653589793
 42
4.971983881904271
  0
ELLIPSE
  5
253
330
1F
100
AcDbEntity
  8
VISIBLE
100
AcDbEllipse
 10
8.61184496596334
 20
6.942325547331945
 30
0.0
 11
-0.006750000000000255
 21
0.01169134295108964
 31
0.0
210
0.0
220
0.0
230
1.0
 40
0.5773502691896435
 41
0.0
 42
3.141592653589793
  0
ELLIPSE
  5
254
330
1F
100
AcDbEntity
  8
VISIBLE
100
AcDbEllipse
 10
8.61184496596334
 20
6.942325547331945
 30
0.0
 11
-0.006750000000000255
 21
0.01169134295108964
 31
0.0
210
0.0
220
0.0
230
1.0
 40
0.5773502691896435
 41
-1.311201425275315
 42
0.0
  0
LINE
  5
255
330
1F
100
AcDbEntity
  8
VISIBLE
100
AcDbLine
 10
8.625093342340895
 20
7.008857651444167
 30
0.0
 11
8.617517198256754
 21
7.004483562617769
 31
0.0
  0
LINE
  5
256
330
1F
100
AcDbEntity
  8
VISIBLE
100
AcDbLine
 10
8.910807628055178
 20
6.513985992138772
 30
0.0
 11
8.903231483971036
 21
6.509611903312373
 31
0.0
  0
ELLIPSE
  5
257
330
1F
100
AcDbEntity
  8
VISIBLE
100
AcDbEllipse
 10
9.122817074099226
 20
5.583935498051345
 30
0.0
 11
0.0357142857142847
 21
0.0
 31
0.0
210
0.0
220
0.0
230
1.0
 40
0.5773502691896284
 41
5.497787143782151
 42
6.283185307179586
  0
ELLIPSE
  5
258
330
1F
100
AcDbEntity
  8
VISIBLE
100
AcDbEllipse
 10
9.075289396878043
 20
5.537657638268048
 30
0.0
 11
-0.006321428571428811
 21
-0.01094903546213111
 31
0.0
210
0.0
220
0.0
230
0.9999999999999999
 40
0.5773502691895224
 41
0.0
 42
0.7853981633975895
  0
ELLIPSE
  5
259
330
1F
100
AcDbEntity
  8
VISIBLE
100
AcDbEllipse
 10
9.075289396878043
 20
5.537657638268048
 30
0.0
 11
-0.006321428571428811
 21
-0.01094903546213111
 31
0.0
210
0.0
220
0.0
230
0.9999999999999999
 40
0.5773502691895224
 41
-0.7853981633976326
 42
0.0
  0
LINE
  5
25A
330
1F
100
AcDbEntity
  8
VISIBLE
100
AcDbLine
 10
7.57288951736555
 20
7.59569417471389
 30
0.0
 11
7.57288951736555
 21
7.641304174810838
 31
0.0
  0
ELLIPSE
  5
25B
330
1F
100
AcDbEntity
  8
VISIBLE
100
AcDbEllipse
 10
7.605214398791222
 20
6.534891569502568
 30
0.0
 11
0.02678571428571441
 21
-0.04639421805988064
 31
0.0
210
0.0
220
0.0
230
0.9999999999999997
 40
0.5773502691896298
 41
-3.141592653589818
 42
-2.904645122209184
  0
ELLIPSE
  5
25C
330
1F
100
AcDbEntity
  8
VISIBLE
100
AcDbEllipse
 10
7.605214398791222
 20
6.534891569502568
 30
0.0
 11
0.02678571428571441
 21
-0.04639421805988064
 31
0.0
210
0.0
220
0.0
230
0.9999999999999997
 40
0.5773502691896298
 41
-4.949336511765326
 42
-3.141592653589818
  0
LINE
  5
25D
330
1F
100
AcDbEntity
  8
VISIBLE
100
AcDbLine
 10
9.075289396878043
 20
5.527334788637748
 30
0.0
 11
9.093331121979757
 21
5.537751183481868
 31
0.0
  0
LINE
  5
25E
330
1F
100
AcDbEntity
  8
VISIBLE
100
AcDbLine
 10
9.108866466802949
 20
5.546720518997491
 30
0.0
 11
9.14807088771303
 21
5.56935520196335
 31
0.0
  0
ELLIPSE
  5
25F
330
1F
100
AcDbEntity
  8
VISIBLE
100
AcDbEllipse
 10
7.611174298804081
 20
6.538332519379335
 30
0.0
 11
0.02678571428571352
 21
-0.04639421805988064
 31
0.0
210
0.0
220
0.0
230
1.0
 40
0.5773502691896264
 41
-3.030110407838326
 42
-2.904645122209137
  0
ELLIPSE
  5
260
330
1F
100
AcDbEntity
  8
VISIBLE
100
AcDbEllipse
 10
7.611174298804081
 20
6.538332519379335
 30
0.0
 11
0.02678571428571352
 21
-0.04639421805988064
 31
0.0
210
0.0
220
0.0
230
1.0
 40
0.5773502691896264
 41
-1.80774385817554
 42
-0.1114822457514149
  0
LINE
  5
261
330
1F
100
AcDbEntity
  8
VISIBLE
100
AcDbLine
 10
7.572889517365552
 20
6.576359348543676
 30
0.0
 11
7.57884941737841
 21
6.579800298420443
 31
0.0
  0
ELLIPSE
  5
262
330
1F
100
AcDbEntity
  8
VISIBLE
100
AcDbEllipse
 10
9.075289396878041
 20
6.920219634516095
 30
0.0
 11
-0.006321428571428811
 21
-0.010949035462132
 31
0.0
210
0.0
220
0.0
230
1.0
 40
0.577350269189644
 41
-2.356194490192349
 42
-0.7853981633974945
  0
LINE
  5
263
330
1F
100
AcDbEntity
  8
VISIBLE
100
AcDbLine
 10
9.072309446871614
 20
5.535937163329665
 30
0.0
 11
9.07230944687161
 21
6.918499159577712
 31
0.0
  0
LINE
  5
264
330
1F
100
AcDbEntity
  8
VISIBLE
100
AcDbLine
 10
7.637539280216892
 20
7.60397861682557
 30
0.0
 11
7.637539280216892
 21
7.558368616728623
 31
0.0
  0
LINE
  5
265
330
1F
100
AcDbEntity
  8
VISIBLE
100
AcDbLine
 10
7.637539280216894
 20
6.539033790558408
 30
0.0
 11
7.637539280216894
 21
6.493423790461461
 31
0.0
  0
ELLIPSE
  5
266
330
1F
100
AcDbEntity
  8
VISIBLE
100
AcDbEllipse
 10
7.465005225607375
 20
7.849917634271023
 30
0.0
 11
0.006321428571428811
 21
0.010949035462132
 31
0.0
210
0.0
220
0.0
230
1.0
 40
0.577350269189644
 41
0.7853981633974438
 42
2.356194490192398
  0
ELLIPSE
  5
267
330
1F
100
AcDbEntity
  8
VISIBLE
100
AcDbEllipse
 10
7.605214398791222
 20
6.534891569502568
 30
0.0
 11
0.02678571428571441
 21
-0.04639421805988064
 31
0.0
210
0.0
220
0.0
230
0.9999999999999997
 40
0.5773502691896298
 41
0.0
 42
0.2369475313806476
  0
ELLIPSE
  5
268
330
1F
100
AcDbEntity
  8
VISIBLE
100
AcDbEllipse
 10
7.605214398791222
 20
6.534891569502568
 30
0.0
 11
0.02678571428571441
 21
-0.04639421805988064
 31
0.0
210
0.0
220
0.0
230
0.9999999999999997
 40
0.5773502691896298
 41
-1.807743858175549
 42
0.0
  0
LINE
  5
269
330
1F
100
AcDbEntity
  8
VISIBLE
100
AcDbLine
 10
7.465005225607375
 20
7.860240483901324
 30
0.0
 11
7.563040530056169
 21
7.916841193314919
 31
0.0
  0
LINE
  5
26A
330
1F
100
AcDbEntity
  8
VISIBLE
100
AcDbLine
 10
7.572889517365552
 20
6.530749348446728
 30
0.0
 11
7.578849417378411
 21
6.534190298323495
 31
0.0
  0
ELLIPSE
  5
26B
330
1F
100
AcDbEntity
  8
VISIBLE
100
AcDbEllipse
 10
7.611174298804079
 20
7.603277345646497
 30
0.0
 11
0.02678571428571352
 21
-0.04639421805988064
 31
0.0
210
0.0
220
0.0
230
1.0
 40
0.577350269189612
 41
-3.030110407838324
 42
-2.904645122209114
  0
LINE
  5
26C
330
1F
100
AcDbEntity
  8
VISIBLE
100
AcDbLine
 10
9.066349546858753
 20
6.915058209700945
 30
0.0
 11
9.066349546858756
 21
5.532496213452898
 31
0.0
  0
LINE
  5
26D
330
1F
100
AcDbEntity
  8
VISIBLE
100
AcDbLine
 10
9.14807088771303
 20
5.576237101716884
 30
0.0
 11
9.108972758535078
 21
5.553663786311184
 31
0.0
  0
LINE
  5
26E
330
1F
100
AcDbEntity
  8
VISIBLE
100
AcDbLine
 10
9.08328949931945
 20
5.538835549689373
 30
0.0
 11
9.075289396878043
 21
5.534216688391282
 31
0.0
  0
LINE
  5
26F
330
1F
100
AcDbEntity
  8
VISIBLE
100
AcDbLine
 10
7.57288951736555
 20
7.59569417471389
 30
0.0
 11
7.578849417378408
 21
7.599135124590657
 31
0.0
  0
ELLIPSE
  5
270
330
1F
100
AcDbEntity
  8
VISIBLE
100
AcDbEllipse
 10
7.611174298804079
 20
7.603277345646497
 30
0.0
 11
0.02678571428571352
 21
-0.04639421805988064
 31
0.0
210
0.0
220
0.0
230
1.0
 40
0.577350269189612
 41
-1.807743858175515
 42
-0.1114822457514297
  0
LINE
  5
271
330
1F
100
AcDbEntity
  8
VISIBLE
100
AcDbLine
 10
7.57288951736555
 20
7.641304174810838
 30
0.0
 11
7.578849417378408
 21
7.644745124687605
 31
0.0
  0
LINE
  5
272
330
1F
100
AcDbEntity
  8
VISIBLE
100
AcDbLine
 10
7.572889517365552
 20
6.530749348446728
 30
0.0
 11
7.572889517365552
 21
6.576359348543676
 31
0.0
  0
ELLIPSE
  5
273
330
1F
100
AcDbEntity
  8
VISIBLE
100
AcDbEllipse
 10
7.605214398791221
 20
7.599836395769731
 30
0.0
 11
0.02678571428571441
 21
-0.04639421805988064
 31
0.0
210
0.0
220
0.0
230
0.9999999999999997
 40
0.5773502691896298
 41
-3.141592653589803
 42
-2.904645122209167
  0
ELLIPSE
  5
274
330
1F
100
AcDbEntity
  8
VISIBLE
100
AcDbEllipse
 10
7.605214398791221
 20
7.599836395769731
 30
0.0
 11
0.02678571428571441
 21
-0.04639421805988064
 31
0.0
210
0.0
220
0.0
230
0.9999999999999997
 40
0.5773502691896298
 41
-4.949336511765344
 42
-3.141592653589803
  0
LINE
  5
275
330
1F
100
AcDbEntity
  8
VISIBLE
100
AcDbLine
 10
7.563040530056169
 20
7.916841193314919
 30
0.0
 11
9.148070887713029
 21
7.001723489647987
 31
0.0
  0
ELLIPSE
  5
276
330
1F
100
AcDbEntity
  8
VISIBLE
100
AcDbEllipse
 10
7.465005225607378
 20
6.467355638022975
 30
0.0
 11
-0.006321428571428811
 21
-0.01094903546213111
 31
0.0
210
0.0
220
0.0
230
0.9999999999999999
 40
0.5773502691895833
 41
-0.7853981633974572
 42
0.0
  0
ELLIPSE
  5
277
330
1F
100
AcDbEntity
  8
VISIBLE
100
AcDbEllipse
 10
9.122817074099226
 20
5.590817397804879
 30
0.0
 11
0.0357142857142847
 21
0.0
 31
0.0
210
0.0
220
0.0
230
1.0
 40
0.5773502691896533
 41
0.0
 42
0.2362040748362457
  0
ELLIPSE
  5
278
330
1F
100
AcDbEntity
  8
VISIBLE
100
AcDbEllipse
 10
9.122817074099226
 20
5.590817397804879
 30
0.0
 11
0.0357142857142847
 21
0.0
 31
0.0
210
0.0
220
0.0
230
1.0
 40
0.5773502691896533
 41
5.497787143782142
 42
6.283185307179586
  0
ELLIPSE
  5
279
330
1F
100
AcDbEntity
  8
VISIBLE
100
AcDbEllipse
 10
9.075289396878043
 20
6.920219634516092
 30
0.0
 11
0.002107142857145306
 21
0.003649678487381181
 31
0.0
210
0.0
220
0.0
230
0.9999999999999997
 40
0.577350269190158
 41
0.7853981633970336
 42
2.35619449019125
  0
LINE
  5
27A
330
1F
100
AcDbEntity
  8
VISIBLE
100
AcDbLine
 10
9.07528939687804
 20
6.923660584392862
 30
0.0
 11
9.148070887713027
 21
6.965680997718463
 31
0.0
  0
ELLIPSE
  5
27B
330
1F
100
AcDbEntity
  8
VISIBLE
100
AcDbEllipse
 10
9.122817074099222
 20
6.987143193559993
 30
0.0
 11
0.03571428571428648
 21
-8.881784197001252E-16
 31
0.0
210
0.0
220
0.0
230
1.0
 40
0.5773502691895996
 41
-6.283185307179543
 42
-5.497787143782134
  0
ELLIPSE
  5
27C
330
1F
100
AcDbEntity
  8
VISIBLE
100
AcDbEllipse
 10
9.122817074099222
 20
6.987143193559993
 30
0.0
 11
0.03571428571428648
 21
-8.881784197001252E-16
 31
0.0
210
0.0
220
0.0
230
1.0
 40
0.5773502691895996
 41
-0.785398163397461
 42
0.0000000000000435
  0
ELLIPSE
  5
27D
330
1F
100
AcDbEntity
  8
VISIBLE
100
AcDbEllipse
 10
7.465005225607375
 20
7.849917634271023
 30
0.0
 11
-0.01264285714285673
 21
0.0
 31
0.0
210
0.0
220
0.0
230
1.0
 40
0.5773502691896999
 41
0.0
 42
0.78539816339741
  0
ELLIPSE
  5
27E
330
1F
100
AcDbEntity
  8
VISIBLE
100
AcDbEllipse
 10
7.465005225607375
 20
7.849917634271023
 30
0.0
 11
-0.01264285714285673
 21
0.0
 31
0.0
210
0.0
220
0.0
230
1.0
 40
0.5773502691896999
 41
-0.7853981633974593
 42
0.0
  0
ELLIPSE
  5
27F
330
1F
100
AcDbEntity
  8
VISIBLE
100
AcDbEllipse
 10
9.075289396878055
 20
5.537657638268067
 30
0.0
 11
-0.002107142857155964
 21
-0.003649678487395391
 31
0.0
210
0.0
220
0.0
230
1.0
 40
0.5773502691879526
 41
0.0
 42
0.7853981633995253
  0
ELLIPSE
  5
280
330
1F
100
AcDbEntity
  8
VISIBLE
100
AcDbEllipse
 10
9.075289396878055
 20
5.537657638268067
 30
0.0
 11
-0.002107142857155964
 21
-0.003649678487395391
 31
0.0
210
0.0
220
0.0
230
1.0
 40
0.5773502691879526
 41
-0.7853981633951677
 42
0.0
  0
LINE
  5
281
330
1F
100
AcDbEntity
  8
VISIBLE
100
AcDbLine
 10
7.57884941737841
 20
6.579800298420443
 30
0.0
 11
7.578849417378411
 21
6.534190298323495
 31
0.0
  0
LINE
  5
282
330
1F
100
AcDbEntity
  8
VISIBLE
100
AcDbLine
 10
7.578849417378408
 20
7.644745124687605
 30
0.0
 11
7.578849417378409
 21
7.599135124590657
 31
0.0
  0
LINE
  5
283
330
1F
100
AcDbEntity
  8
VISIBLE
100
AcDbLine
 10
7.465005225607375
 20
7.860240483901324
 30
0.0
 11
7.456065375588088
 21
7.855079059086173
 31
0.0
  0
LINE
  5
284
330
1F
100
AcDbEntity
  8
VISIBLE
100
AcDbLine
 10
9.148070887713027
 20
6.972562897471997
 30
0.0
 11
9.07528939687804
 21
6.930542484146396
 31
0.0
  0
ELLIPSE
  5
285
330
1F
100
AcDbEntity
  8
VISIBLE
100
AcDbEllipse
 10
7.605214398791221
 20
7.599836395769731
 30
0.0
 11
0.02678571428571441
 21
-0.04639421805988064
 31
0.0
210
0.0
220
0.0
230
0.9999999999999997
 40
0.5773502691896298
 41
0.0
 42
0.2369475313806091
  0
ELLIPSE
  5
286
330
1F
100
AcDbEntity
  8
VISIBLE
100
AcDbEllipse
 10
7.605214398791221
 20
7.599836395769731
 30
0.0
 11
0.02678571428571441
 21
-0.04639421805988064
 31
0.0
210
0.0
220
0.0
230
0.9999999999999997
 40
0.5773502691896298
 41
-1.807743858175531
 42
0.0
  0
ELLIPSE
  5
287
330
1F
100
AcDbEntity
  8
VISIBLE
100
AcDbEllipse
 10
9.122817074099222
 20
6.980261293806459
 30
0.0
 11
0.03571428571428648
 21
-8.881784197001252E-16
 31
0.0
210
0.0
220
0.0
230
1.0
 40
0.5773502691895996
 41
-0.785398163397461
 42
0.0000000000000435
  0
ELLIPSE
  5
288
330
1F
100
AcDbEntity
  8
VISIBLE
100
AcDbEllipse
 10
7.465005225607378
 20
6.467355638022975
 30
0.0
 11
-0.01264285714285762
 21
0.0
 31
0.0
210
0.0
220
0.0
230
1.0
 40
0.5773502691895891
 41
0.0
 42
0.7853981633973701
  0
LINE
  5
289
330
1F
100
AcDbEntity
  8
VISIBLE
100
AcDbLine
 10
9.158531359813512
 20
6.980261293806458
 30
0.0
 11
9.158531359813512
 21
6.987143193559992
 31
0.0
  0
LINE
  5
28A
330
1F
100
AcDbEntity
  8
VISIBLE
100
AcDbLine
 10
7.45868379703595
 20
6.456406602560844
 30
0.0
 11
9.068967968306616
 21
5.526708602805916
 31
0.0
  0
LINE
  5
28B
330
1F
100
AcDbEntity
  8
VISIBLE
100
AcDbLine
 10
7.452362368464521
 20
6.467355638022976
 30
0.0
 11
7.45236236846452
 21
7.849917634271023
 31
0.0
  0
LINE
  5
28C
330
1F
100
AcDbEntity
  8
VISIBLE
100
AcDbLine
 10
9.158531359813514
 20
5.590817397804879
 30
0.0
 11
9.158531359813514
 21
5.583935498051345
 31
0.0
  0
ELLIPSE
  5
28D
330
1F
100
AcDbEntity
  8
VISIBLE
100
AcDbEllipse
 10
9.091401329963668
 20
6.906718280338612
 30
0.0
 11
0.008928571428571175
 21
0.0
 31
0.0
210
0.0
220
0.0
230
1.0
 40
0.5773502691896533
 41
0.0
 42
0.7853981633976359
  0
ELLIPSE
  5
28E
330
1F
100
AcDbEntity
  8
VISIBLE
100
AcDbEllipse
 10
9.091401329963668
 20
6.906718280338612
 30
0.0
 11
0.008928571428571175
 21
0.0
 31
0.0
210
0.0
220
0.0
230
1.0
 40
0.5773502691896533
 41
3.141592653589621
 42
6.283185307179586
  0
ELLIPSE
  5
28F
330
1F
100
AcDbEntity
  8
VISIBLE
100
AcDbEllipse
 10
9.091401329963668
 20
6.906718280338612
 30
0.0
 11
0.008928571428571175
 21
0.0
 31
0.0
210
0.0
220
0.0
230
1.0
 40
0.5773502691896533
 41
0.7853981633976359
 42
3.141592653589621
  0
LINE
  5
290
330
1F
100
AcDbEntity
  8
VISIBLE
100
AcDbLine
 10
9.072309446871623
 20
5.544510377429408
 30
0.0
 11
9.078976453665668
 21
5.540661179262177
 31
0.0
  0
LINE
  5
291
330
1F
100
AcDbEntity
  8
VISIBLE
100
AcDbLine
 10
9.072309446871625
 20
6.910392514952791
 30
0.0
 11
9.074366026420426
 21
6.909205148196681
 31
0.0
  0
ELLIPSE
  5
292
330
1F
100
AcDbEntity
  8
VISIBLE
100
AcDbEllipse
 10
9.091401329963668
 20
6.906718280338612
 30
0.0
 11
0.01757142857142746
 21
0.0
 31
0.0
210
0.0
220
0.0
230
1.0
 40
0.5773502691896903
 41
0.0
 42
0.7853981633974678
  0
ELLIPSE
  5
293
330
1F
100
AcDbEntity
  8
VISIBLE
100
AcDbEllipse
 10
9.091401329963668
 20
6.906718280338612
 30
0.0
 11
0.01757142857142746
 21
0.0
 31
0.0
210
0.0
220
0.0
230
1.0
 40
0.5773502691896903
 41
3.926990816987199
 42
6.283185307179586
  0
LINE
  5
294
330
1F
100
AcDbEntity
  8
VISIBLE
100
AcDbLine
 10
9.078976453665677
 20
6.89954477466332
 30
0.0
 11
9.072309446871627
 21
6.903393972830553
 31
0.0
  0
ELLIPSE
  5
295
330
1F
100
AcDbEntity
  8
VISIBLE
100
AcDbEllipse
 10
9.091401329963668
 20
6.906718280338612
 30
0.0
 11
0.01757142857142746
 21
0.0
 31
0.0
210
0.0
220
0.0
230
1.0
 40
0.5773502691896903
 41
1.818455813714932
 42
2.893933166669742
  0
LINE
  5
296
330
1F
100
AcDbEntity
  8
VISIBLE
100
AcDbLine
 10
9.087093948481785
 20
6.91655361742503
 30
0.0
 11
9.075046753802914
 21
6.923509068515856
 31
0.0
  0
LINE
  5
297
330
1F
100
AcDbEntity
  8
VISIBLE
100
AcDbLine
 10
9.081097774009232
 20
6.927014052493104
 30
0.0
 11
9.10382620626166
 21
6.913891786013907
 31
0.0
  0
ELLIPSE
  5
298
330
1F
100
AcDbEntity
  8
VISIBLE
100
AcDbEllipse
 10
9.09140132996366
 20
5.54783468493747
 30
0.0
 11
0.01757142857142924
 21
0.0
 31
0.0
210
0.0
220
0.0
230
1.0
 40
0.577350269189632
 41
3.926990816987249
 42
6.283185307179586
  0
LINE
  5
299
330
1F
100
AcDbEntity
  8
VISIBLE
100
AcDbLine
 10
9.108972758535087
 20
6.906718280338612
 30
0.0
 11
9.108972758535081
 21
5.547834684937469
 31
0.0
  0
ELLIPSE
  5
29A
330
1F
100
AcDbEntity
  8
VISIBLE
100
AcDbEllipse
 10
8.742191595311946
 20
6.367462221493843
 30
0.0
 11
-0.03791885536996454
 21
0.06567738406563706
 31
0.0
210
0.0
220
0.0
230
1.0
 40
0.577350269189607
 41
0.0
 42
0.7853981633974408
  0
ELLIPSE
  5
29B
330
1F
100
AcDbEntity
  8
VISIBLE
100
AcDbEllipse
 10
8.742191595311946
 20
6.367462221493843
 30
0.0
 11
-0.03791885536996454
 21
0.06567738406563706
 31
0.0
210
0.0
220
0.0
230
1.0
 40
0.577350269189607
 41
3.141592653589838
 42
6.283185307179586
  0
ELLIPSE
  5
29C
330
1F
100
AcDbEntity
  8
VISIBLE
100
AcDbEllipse
 10
8.742191595311946
 20
6.367462221493843
 30
0.0
 11
-0.03791885536996454
 21
0.06567738406563706
 31
0.0
210
0.0
220
0.0
230
1.0
 40
0.577350269189607
 41
0.7853981633974408
 42
3.141592653589838
  0
ELLIPSE
  5
29D
330
1F
100
AcDbEntity
  8
VISIBLE
100
AcDbEllipse
 10
8.793204298811833
 20
6.396914419591593
 30
0.0
 11
0.04167857142856946
 21
-0.0721894033011754
 31
0.0
210
0.0
220
0.0
230
1.0
 40
0.5773502691896172
 41
0.0
 42
3.141592653589835
  0
ELLIPSE
  5
29E
330
1F
100
AcDbEntity
  8
VISIBLE
100
AcDbEllipse
 10
8.742191595311946
 20
6.367462221493843
 30
0.0
 11
0.04167857142857123
 21
-0.07218940330117452
 31
0.0
210
0.0
220
0.0
230
1.0
 40
0.5773502691896217
 41
-0.7853981633974481
 42
0.0
  0
ELLIPSE
  5
29F
330
1F
100
AcDbEntity
  8
VISIBLE
100
AcDbEllipse
 10
8.742191595311946
 20
6.367462221493843
 30
0.0
 11
0.04167857142857123
 21
-0.07218940330117452
 31
0.0
210
0.0
220
0.0
230
1.0
 40
0.5773502691896217
 41
0.0
 42
3.141592653589784
  0
ELLIPSE
  5
2A0
330
1F
100
AcDbEntity
  8
VISIBLE
100
AcDbEllipse
 10
8.742191595311946
 20
6.367462221493843
 30
0.0
 11
0.04167857142857123
 21
-0.07218940330117452
 31
0.0
210
0.0
220
0.0
230
1.0
 40
0.5773502691896217
 41
-3.141592653589802
 42
-0.7853981633974483
  0
ELLIPSE
  5
2A1
330
1F
100
AcDbEntity
  8
VISIBLE
100
AcDbEllipse
 10
8.74421190040105
 20
6.368628645180882
 30
0.0
 11
-0.03791885536996454
 21
0.06567738406563706
 31
0.0
210
0.0
220
0.0
230
1.0
 40
0.577350269189607
 41
0.7853981633974552
 42
3.114949653584575
  0
ELLIPSE
  5
2A2
330
1F
100
AcDbEntity
  8
VISIBLE
100
AcDbEllipse
 10
8.74421190040105
 20
6.368628645180882
 30
0.0
 11
-0.03791885536996454
 21
0.06567738406563706
 31
0.0
210
0.0
220
0.0
230
1.0
 40
0.577350269189607
 41
0.0266430000052779
 42
0.7853981633974552
  0
LINE
  5
2A3
330
1F
100
AcDbEntity
  8
VISIBLE
100
AcDbLine
 10
8.751525727383267
 20
6.469103822892767
 30
0.0
 11
8.700513023883381
 21
6.439651624795017
 31
0.0
  0
LINE
  5
2A4
330
1F
100
AcDbEntity
  8
VISIBLE
100
AcDbLine
 10
8.83488287024041
 20
6.324725016290418
 30
0.0
 11
8.783870166740522
 21
6.295272818192668
 31
0.0
  0
LINE
  5
2A5
330
1F
100
AcDbEntity
  8
VISIBLE
100
AcDbLine
 10
9.640267715046098
 20
7.239528118843189
 30
0.0
 11
9.640267715046098
 21
7.246410018596722
 31
0.0
  0
LINE
  5
2A6
330
1F
100
AcDbEntity
  8
VISIBLE
100
AcDbLine
 10
9.405306233183268
 20
7.103873044040492
 30
0.0
 11
9.398336180625844
 21
7.103873044040492
 31
0.0
  0
LINE
  5
2A7
330
1F
100
AcDbEntity
  8
VISIBLE
100
AcDbLine
 10
9.70087686771923
 20
7.274520829454379
 30
0.0
 11
9.70087686771923
 21
7.28140272920791
 31
0.0
  0
LINE
  5
2A8
330
1F
100
AcDbEntity
  8
VISIBLE
100
AcDbLine
 10
9.606932681075875
 20
7.220282128007037
 30
0.0
 11
9.606932681075875
 21
7.227164027760568
 31
0.0
  0
LINE
  5
2A9
330
1F
100
AcDbEntity
  8
VISIBLE
100
AcDbLine
 10
9.398336180625844
 20
7.103873044040492
 30
0.0
 11
9.395861306891701
 21
7.10530191305711
 31
0.0
  0
LINE
  5
2AA
330
1F
100
AcDbEntity
  8
VISIBLE
100
AcDbLine
 10
9.554404748759161
 20
7.189955112144006
 30
0.0
 11
9.554404748759161
 21
7.196837011897538
 31
0.0
  0
LINE
  5
2AB
330
1F
100
AcDbEntity
  8
VISIBLE
100
AcDbLine
 10
9.29888666261469
 20
7.049313576079208
 30
0.0
 11
9.304846562627544
 21
7.045872626202444
 31
0.0
  0
LINE
  5
2AC
330
1F
100
AcDbEntity
  8
VISIBLE
100
AcDbLine
 10
9.540212105508209
 20
7.181760985742558
 30
0.0
 11
9.534252205495354
 21
7.185201935619323
 31
0.0
  0
LINE
  5
2AD
330
1F
100
AcDbEntity
  8
VISIBLE
100
AcDbLine
 10
9.398336180625844
 20
7.103873044040492
 30
0.0
 11
9.398336180625844
 21
7.099848882320197
 31
0.0
  0
LINE
  5
2AE
330
1F
100
AcDbEntity
  8
TANGENT_EDGES
100
AcDbLine
 10
9.960637594550848
 20
7.427934704892275
 30
0.0
 11
9.960637594550848
 21
7.424493755015507
 31
0.0
  0
LINE
  5
2AF
330
1F
100
AcDbEntity
  8
TANGENT_EDGES
100
AcDbLine
 10
9.957657644544415
 20
7.429655179830659
 30
0.0
 11
9.960637594550844
 21
7.427934704892276
 31
0.0
  0
LINE
  5
2B0
330
1F
100
AcDbEntity
  8
TANGENT_EDGES
100
AcDbLine
 10
9.08225944943546
 20
6.92768474611316
 30
0.0
 11
9.08619904435922
 21
6.925410219923428
 31
0.0
  0
LINE
  5
2B1
330
1F
100
AcDbEntity
  8
TANGENT_EDGES
100
AcDbLine
 10
8.374344546213266
 20
8.350663323117146
 30
0.0
 11
9.957657644544419
 21
7.436537079584192
 31
0.0
  0
LINE
  5
2B2
330
1F
100
AcDbEntity
  8
TANGENT_EDGES
100
AcDbLine
 10
9.966597494563706
 20
7.421052805138741
 30
0.0
 11
9.9665974945637
 21
6.062752421581109
 31
0.0
  0
LINE
  5
2B3
330
1F
100
AcDbEntity
  8
TANGENT_EDGES
100
AcDbLine
 10
9.1060990494869
 20
6.912278020825872
 30
0.0
 11
9.1060990494869
 21
6.924243796236391
 31
0.0
  0
ELLIPSE
  5
2B4
330
1F
100
AcDbEntity
  8
TANGENT_EDGES
100
AcDbEllipse
 10
8.759897536439611
 20
6.559031753813174
 30
0.0
 11
0.00878571428571462
 21
-0.01521730352364159
 31
0.0
210
0.0
220
0.0
230
0.9999999999999997
 40
0.5773502691896226
 41
0.0
 42
6.283185307179586
  0
ELLIPSE
  5
2B5
330
1F
100
AcDbEntity
  8
TANGENT_EDGES
100
AcDbEllipse
 10
8.909233327814006
 20
6.769969508705218
 30
0.0
 11
0.008785714285712841
 21
-0.0152173035236407
 31
0.0
210
0.0
220
0.0
230
0.9999999999999999
 40
0.5773502691896518
 41
0.0
 42
6.283185307179586
  0
ELLIPSE
  5
2B6
330
1F
100
AcDbEntity
  8
TANGENT_EDGES
100
AcDbEllipse
 10
8.61184496596334
 20
6.942325547331945
 30
0.0
 11
0.008785714285714619
 21
-0.0152173035236407
 31
0.0
210
0.0
220
0.0
230
0.9999999999999999
 40
0.5773502691896479
 41
0.0
 42
6.283185307179586
  0
LINE
  5
2B7
330
1F
100
AcDbEntity
  8
TANGENT_EDGES
100
AcDbLine
 10
7.456065375588088
 20
7.844756209455872
 30
0.0
 11
9.066349546858753
 21
6.915058209700945
 31
0.0
  0
LINE
  5
2B8
330
1F
100
AcDbEntity
  8
TANGENT_EDGES
100
AcDbLine
 10
7.45606537558809
 20
6.462194213207825
 30
0.0
 11
7.456065375588088
 21
7.844756209455872
 31
0.0
  0
LINE
  5
2B9
330
1F
100
AcDbEntity
  8
TANGENT_EDGES
100
AcDbLine
 10
9.075289396878041
 20
6.930542484146396
 30
0.0
 11
7.465005225607375
 21
7.860240483901324
 31
0.0
  0
LINE
  5
2BA
330
1F
100
AcDbEntity
  8
TANGENT_EDGES
100
AcDbLine
 10
9.14807088771303
 20
5.576237101716884
 30
0.0
 11
9.14807088771303
 21
5.56935520196335
 31
0.0
  0
LINE
  5
2BB
330
1F
100
AcDbEntity
  8
TANGENT_EDGES
100
AcDbLine
 10
9.075289396878043
 20
5.534216688391282
 30
0.0
 11
9.072309446871614
 21
5.535937163329665
 31
0.0
  0
LINE
  5
2BC
330
1F
100
AcDbEntity
  8
TANGENT_EDGES
100
AcDbLine
 10
9.066349546858756
 20
5.532496213452898
 30
0.0
 11
7.45606537558809
 21
6.462194213207825
 31
0.0
  0
LINE
  5
2BD
330
1F
100
AcDbEntity
  8
TANGENT_EDGES
100
AcDbLine
 10
9.148070887713027
 20
6.972562897471997
 30
0.0
 11
9.148070887713027
 21
6.965680997718463
 31
0.0
  0
LINE
  5
2BE
330
1F
100
AcDbEntity
  8
TANGENT_EDGES
100
AcDbLine
 10
9.078976453665677
 20
6.89954477466332
 30
0.0
 11
9.078976453665668
 21
5.540661179262177
 31
0.0
  0
LINE
  5
2BF
330
1F
100
AcDbEntity
  8
VISIBLE
100
AcDbLine
 10
1.319774335563098
 20
2.383092930282172
 30
0.0
 11
1.097540775761607
 21
2.254786324707816
 31
0.0
  0
LINE
  5
2C0
330
1F
100
AcDbEntity
  8
VISIBLE
100
AcDbLine
 10
0.7591395909425759
 20
1.822684622273782
 30
0.0
 11
0.7591396733191158
 21
1.824491859185002
 31
0.0
  0
LINE
  5
2C1
330
1F
100
AcDbEntity
  8
VISIBLE
100
AcDbLine
 10
1.097540775761606
 20
2.435581996198958
 30
0.0
 11
1.102591538484367
 21
2.432665936981358
 31
0.0
  0
LINE
  5
2C2
330
1F
100
AcDbEntity
  8
VISIBLE
100
AcDbLine
 10
3.014248922702739
 20
1.28953821519811
 30
0.0
 11
2.229012640914534
 21
0.8361818365302287
 31
0.0
  0
ELLIPSE
  5
2C3
330
1F
100
AcDbEntity
  8
VISIBLE
100
AcDbEllipse
 10
1.074862851136402
 20
1.64489253934698
 30
0.0
 11
-0.02232142857142971
 21
2.220446049250313E-16
 31
0.0
210
0.0
220
0.0
230
1.0
 40
0.5773502691896173
 41
0.2702823228237296
 42
2.871310330766113
  0
LINE
  5
2C4
330
1F
100
AcDbEntity
  8
VISIBLE
100
AcDbLine
 10
1.021779334920189
 20
2.560972542555715
 30
0.0
 11
0.7995457751186986
 21
2.43266593698136
 31
0.0
  0
ELLIPSE
  5
2C5
330
1F
100
AcDbEntity
  8
VISIBLE
100
AcDbEllipse
 10
0.6456995425833959
 20
3.118931313251119
 30
0.0
 11
-0.01264285714285762
 21
-8.881784197001252E-16
 31
0.0
210
0.0
220
0.0
230
1.0
 40
0.5773502691896242
 41
-0.7853981633974326
 42
0.0
  0
ELLIPSE
  5
2C6
330
1F
100
AcDbEntity
  8
VISIBLE
100
AcDbEllipse
 10
2.034507768461005
 20
1.090841288003156
 30
0.0
 11
-0.02232142857142883
 21
2.220446049250313E-16
 31
0.0
210
0.0
220
0.0
230
1.0
 40
0.5773502691896303
 41
0.270282322823663
 42
2.871310330766097
  0
ELLIPSE
  5
2C7
330
1F
100
AcDbEntity
  8
VISIBLE
100
AcDbEllipse
 10
1.398061157765892
 20
1.713857339843192
 30
0.0
 11
-0.01571428571428579
 21
0.0
 31
0.0
210
0.0
220
0.0
230
1.0
 40
0.5773502691896352
 41
-3.141592653589744
 42
-0.785398163397502
  0
ELLIPSE
  5
2C8
330
1F
100
AcDbEntity
  8
VISIBLE
100
AcDbEllipse
 10
1.398061157765892
 20
1.713857339843192
 30
0.0
 11
-0.01571428571428579
 21
0.0
 31
0.0
210
0.0
220
0.0
230
1.0
 40
0.5773502691896352
 41
0.0
 42
3.141592653589842
  0
ELLIPSE
  5
2C9
330
1F
100
AcDbEntity
  8
VISIBLE
100
AcDbEllipse
 10
1.398061157765892
 20
1.713857339843192
 30
0.0
 11
-0.01571428571428579
 21
0.0
 31
0.0
210
0.0
220
0.0
230
1.0
 40
0.5773502691896352
 41
-0.785398163397502
 42
0.0
  0
ELLIPSE
  5
2CA
330
1F
100
AcDbEntity
  8
VISIBLE
100
AcDbEllipse
 10
1.68100488549497
 20
1.987908585113149
 30
0.0
 11
-0.02232142857142883
 21
2.220446049250313E-16
 31
0.0
210
0.0
220
0.0
230
1.0
 40
0.5773502691896303
 41
-3.141592653589742
 42
-0.7853981633974909
  0
ELLIPSE
  5
2CB
330
1F
100
AcDbEntity
  8
VISIBLE
100
AcDbEllipse
 10
1.68100488549497
 20
1.987908585113149
 30
0.0
 11
-0.02232142857142883
 21
2.220446049250313E-16
 31
0.0
210
0.0
220
0.0
230
1.0
 40
0.5773502691896303
 41
0.0
 42
3.141592653589845
  0
ELLIPSE
  5
2CC
330
1F
100
AcDbEntity
  8
VISIBLE
100
AcDbEllipse
 10
1.68100488549497
 20
1.987908585113149
 30
0.0
 11
-0.02232142857142883
 21
2.220446049250313E-16
 31
0.0
210
0.0
220
0.0
230
1.0
 40
0.5773502691896303
 41
-0.7853981633974909
 42
0.0
  0
ELLIPSE
  5
2CD
330
1F
100
AcDbEntity
  8
VISIBLE
100
AcDbEllipse
 10
0.6456995425833927
 20
1.760630929693487
 30
0.0
 11
-0.01264285714285718
 21
0.0
 31
0.0
210
0.0
220
0.0
230
1.0
 40
0.577350269189627
 41
0.0
 42
0.7853981633974733
  0
ELLIPSE
  5
2CE
330
1F
100
AcDbEntity
  8
VISIBLE
100
AcDbEllipse
 10
0.6456995425833927
 20
1.760630929693487
 30
0.0
 11
-0.01264285714285718
 21
0.0
 31
0.0
210
0.0
220
0.0
230
1.0
 40
0.577350269189627
 41
-0.7853981633975964
 42
0.0
  0
ELLIPSE
  5
2CF
330
1F
100
AcDbEntity
  8
VISIBLE
100
AcDbEllipse
 10
0.7465127665297041
 20
1.831782774602903
 30
0.0
 11
0.008928571428572729
 21
-0.01546473935329584
 31
0.0
210
0.0
220
0.0
230
1.0
 40
0.5773502691896134
 41
0.785345531818702
 42
1.091636682498132
  0
LINE
  5
2D0
330
1F
100
AcDbEntity
  8
VISIBLE
100
AcDbLine
 10
0.7995457751186986
 20
2.43266593698136
 30
0.0
 11
0.7995457751186982
 21
2.438498055416558
 31
0.0
  0
LINE
  5
2D1
330
1F
100
AcDbEntity
  8
VISIBLE
100
AcDbLine
 10
1.097540775761606
 20
2.260618443143015
 30
0.0
 11
1.102591538484367
 21
2.257702383925416
 31
0.0
  0
ELLIPSE
  5
2D2
330
1F
100
AcDbEntity
  8
VISIBLE
100
AcDbEllipse
 10
2.229012640914533
 20
0.846504686160529
 30
0.0
 11
-0.006321428571428811
 21
-0.01094903546213188
 31
0.0
210
0.0
220
0.0
230
1.0
 40
0.5773502691896049
 41
0.0
 42
0.7853981633974831
  0
LINE
  5
2D3
330
1F
100
AcDbEntity
  8
VISIBLE
100
AcDbLine
 10
0.799545775118698
 20
2.263534502360615
 30
0.0
 11
1.021779334920189
 21
2.391841107934972
 31
0.0
  0
ELLIPSE
  5
2D4
330
1F
100
AcDbEntity
  8
VISIBLE
100
AcDbEllipse
 10
0.752472666542562
 20
1.83522372447967
 30
0.0
 11
0.008928571428572729
 21
-0.01546473935329584
 31
0.0
210
0.0
220
0.0
230
0.9999999999999998
 40
0.5773502691896197
 41
0.7853455318186967
 42
1.091636682498116
  0
LINE
  5
2D5
330
1F
100
AcDbEntity
  8
VISIBLE
100
AcDbLine
 10
1.021779334920189
 20
2.566804660990914
 30
0.0
 11
1.021779334920189
 21
2.560972542555715
 31
0.0
  0
LINE
  5
2D6
330
1F
100
AcDbEntity
  8
VISIBLE
100
AcDbLine
 10
1.097540775761607
 20
2.604713430819701
 30
0.0
 11
1.097540775761608
 21
2.610545549254899
 31
0.0
  0
ELLIPSE
  5
2D7
330
1F
100
AcDbEntity
  8
VISIBLE
100
AcDbEllipse
 10
1.877883616428194
 20
1.443713613924813
 30
0.0
 11
-0.01571428571428601
 21
-2.220446049250313E-16
 31
0.0
210
0.0
220
0.0
230
1.0
 40
0.577350269189627
 41
0.3890032944669592
 42
2.752589359122756
  0
LINE
  5
2D8
330
1F
100
AcDbEntity
  8
VISIBLE
100
AcDbLine
 10
1.319774335563098
 20
2.558056483338115
 30
0.0
 11
1.097540775761608
 21
2.429749877763759
 31
0.0
  0
LINE
  5
2D9
330
1F
100
AcDbEntity
  8
VISIBLE
100
AcDbLine
 10
0.7995457751186978
 20
2.257702383925417
 30
0.0
 11
0.7995457751186978
 21
2.263534502360615
 31
0.0
  0
ELLIPSE
  5
2DA
330
1F
100
AcDbEntity
  8
VISIBLE
100
AcDbEllipse
 10
2.753837395436641
 20
1.310712153010121
 30
0.0
 11
-0.05535714285714333
 21
2.220446049250313E-16
 31
0.0
210
0.0
220
0.0
230
1.0
 40
0.5773502691896263
 41
0.1078717934108697
 42
3.033720860178945
  0
LINE
  5
2DB
330
1F
100
AcDbEntity
  8
VISIBLE
100
AcDbLine
 10
0.799545775118697
 20
2.438498055416559
 30
0.0
 11
0.8045965378414581
 21
2.435581996198959
 31
0.0
  0
LINE
  5
2DC
330
1F
100
AcDbEntity
  8
VISIBLE
100
AcDbLine
 10
1.097540775761607
 20
2.254786324707816
 30
0.0
 11
1.097540775761607
 21
2.260618443143015
 31
0.0
  0
LINE
  5
2DD
330
1F
100
AcDbEntity
  8
VISIBLE
100
AcDbLine
 10
1.021779334920188
 20
2.211045436443831
 30
0.0
 11
0.7995457751186973
 21
2.082738830869475
 31
0.0
  0
ELLIPSE
  5
2DE
330
1F
100
AcDbEntity
  8
VISIBLE
100
AcDbEllipse
 10
1.506197987660211
 20
2.257439938595828
 30
0.0
 11
-0.01264285714285696
 21
-4.440892098500626E-16
 31
0.0
210
0.0
220
0.0
230
1.0
 40
0.5773502691896195
 41
-1.626466833964789
 42
-0.7853981633975325
  0
ELLIPSE
  5
2DF
330
1F
100
AcDbEntity
  8
VISIBLE
100
AcDbEllipse
 10
1.75161454835917
 20
1.917981485075124
 30
0.0
 11
-0.01571428571428601
 21
0.0
 31
0.0
210
0.0
220
0.0
230
1.0
 40
0.5773502691896129
 41
-3.141592653589744
 42
-0.7853981633975047
  0
ELLIPSE
  5
2E0
330
1F
100
AcDbEntity
  8
VISIBLE
100
AcDbEllipse
 10
1.75161454835917
 20
1.917981485075124
 30
0.0
 11
-0.01571428571428601
 21
0.0
 31
0.0
210
0.0
220
0.0
230
1.0
 40
0.5773502691896129
 41
0.0
 42
3.141592653589842
  0
ELLIPSE
  5
2E1
330
1F
100
AcDbEntity
  8
VISIBLE
100
AcDbEllipse
 10
1.75161454835917
 20
1.917981485075124
 30
0.0
 11
-0.01571428571428601
 21
0.0
 31
0.0
210
0.0
220
0.0
230
1.0
 40
0.5773502691896129
 41
-0.7853981633975045
 42
0.0
  0
ELLIPSE
  5
2E2
330
1F
100
AcDbEntity
  8
VISIBLE
100
AcDbEllipse
 10
1.074862851136401
 20
1.638010639593447
 30
0.0
 11
-0.02232142857142949
 21
2.220446049250313E-16
 31
0.0
210
0.0
220
0.0
230
1.0
 40
0.577350269189623
 41
-3.141592653589759
 42
-0.78539816339749
  0
ELLIPSE
  5
2E3
330
1F
100
AcDbEntity
  8
VISIBLE
100
AcDbEllipse
 10
1.074862851136401
 20
1.638010639593447
 30
0.0
 11
-0.02232142857142949
 21
2.220446049250313E-16
 31
0.0
210
0.0
220
0.0
230
1.0
 40
0.577350269189623
 41
0.0
 42
3.141592653589827
  0
ELLIPSE
  5
2E4
330
1F
100
AcDbEntity
  8
VISIBLE
100
AcDbEllipse
 10
1.074862851136401
 20
1.638010639593447
 30
0.0
 11
-0.02232142857142949
 21
2.220446049250313E-16
 31
0.0
210
0.0
220
0.0
230
1.0
 40
0.577350269189623
 41
-0.78539816339749
 42
0.0
  0
LINE
  5
2E5
330
1F
100
AcDbEntity
  8
VISIBLE
100
AcDbLine
 10
0.7995457751186973
 20
2.088570949304673
 30
0.0
 11
1.021779334920188
 21
2.216877554879029
 31
0.0
  0
ELLIPSE
  5
2E6
330
1F
100
AcDbEntity
  8
VISIBLE
100
AcDbEllipse
 10
1.63044675064012
 20
1.411607801939053
 30
0.0
 11
-0.06142857142857183
 21
4.440892098500626E-16
 31
0.0
210
0.0
220
0.0
230
1.0
 40
0.5773502691896296
 41
0.0971744904599881
 42
3.044418163129836
  0
ELLIPSE
  5
2E7
330
1F
100
AcDbEntity
  8
VISIBLE
100
AcDbEllipse
 10
1.398061157765892
 20
1.720739239596726
 30
0.0
 11
-0.01571428571428601
 21
-2.220446049250313E-16
 31
0.0
210
0.0
220
0.0
230
1.0
 40
0.577350269189627
 41
0.3890032944670043
 42
2.752589359122783
  0
ELLIPSE
  5
2E8
330
1F
100
AcDbEntity
  8
VISIBLE
100
AcDbEllipse
 10
1.877883616428194
 20
1.43683171417128
 30
0.0
 11
-0.01571428571428601
 21
2.220446049250313E-16
 31
0.0
210
0.0
220
0.0
230
1.0
 40
0.5773502691896129
 41
-3.141592653589744
 42
-0.7853981633974683
  0
ELLIPSE
  5
2E9
330
1F
100
AcDbEntity
  8
VISIBLE
100
AcDbEllipse
 10
1.877883616428194
 20
1.43683171417128
 30
0.0
 11
-0.01571428571428601
 21
2.220446049250313E-16
 31
0.0
210
0.0
220
0.0
230
1.0
 40
0.5773502691896129
 41
0.0
 42
3.141592653589842
  0
ELLIPSE
  5
2EA
330
1F
100
AcDbEntity
  8
VISIBLE
100
AcDbEllipse
 10
1.877883616428194
 20
1.43683171417128
 30
0.0
 11
-0.01571428571428601
 21
2.220446049250313E-16
 31
0.0
210
0.0
220
0.0
230
1.0
 40
0.5773502691896129
 41
-0.785398163397468
 42
0.0
  0
LINE
  5
2EB
330
1F
100
AcDbEntity
  8
VISIBLE
100
AcDbLine
 10
1.319774335563098
 20
2.733020036394057
 30
0.0
 11
1.097540775761608
 21
2.604713430819701
 31
0.0
  0
LINE
  5
2EC
330
1F
100
AcDbEntity
  8
VISIBLE
100
AcDbLine
 10
1.097540775761607
 20
2.429749877763759
 30
0.0
 11
1.097540775761607
 21
2.435581996198957
 31
0.0
  0
LINE
  5
2ED
330
1F
100
AcDbEntity
  8
VISIBLE
100
AcDbLine
 10
1.319774335563098
 20
2.388925048717371
 30
0.0
 11
1.319774335563098
 21
2.383092930282172
 31
0.0
  0
LINE
  5
2EE
330
1F
100
AcDbEntity
  8
VISIBLE
100
AcDbLine
 10
1.097540775761607
 20
2.260618443143014
 30
0.0
 11
1.319774335563098
 21
2.38892504871737
 31
0.0
  0
LINE
  5
2EF
330
1F
100
AcDbEntity
  8
VISIBLE
100
AcDbLine
 10
0.6427195925769645
 20
1.76235140463187
 30
0.0
 11
1.420941112899986
 21
2.211657808879513
 31
0.0
  0
ELLIPSE
  5
2F0
330
1F
100
AcDbEntity
  8
VISIBLE
100
AcDbEllipse
 10
0.6456995425833929
 20
1.760630929693487
 30
0.0
 11
-0.006321428571428478
 21
-0.010949035462132
 31
0.0
210
0.0
220
0.0
230
1.0
 40
0.5773502691896188
 41
0.0
 42
0.7853981633974392
  0
ELLIPSE
  5
2F1
330
1F
100
AcDbEntity
  8
VISIBLE
100
AcDbEllipse
 10
0.6456995425833929
 20
1.760630929693487
 30
0.0
 11
-0.006321428571428478
 21
-0.010949035462132
 31
0.0
210
0.0
220
0.0
230
1.0
 40
0.5773502691896188
 41
-0.7853981633978002
 42
0.0
  0
LINE
  5
2F2
330
1F
100
AcDbEntity
  8
VISIBLE
100
AcDbLine
 10
0.7995457751186982
 20
2.438498055416558
 30
0.0
 11
1.021779334920189
 21
2.566804660990914
 31
0.0
  0
LINE
  5
2F3
330
1F
100
AcDbEntity
  8
VISIBLE
100
AcDbLine
 10
1.021779334920189
 20
2.386008989499773
 30
0.0
 11
0.7995457751186978
 21
2.257702383925417
 31
0.0
  0
LINE
  5
2F4
330
1F
100
AcDbEntity
  8
VISIBLE
100
AcDbLine
 10
1.423921062906407
 20
2.206496384064371
 30
0.0
 11
0.6456995425833937
 21
1.75718997981672
 31
0.0
  0
LINE
  5
2F5
330
1F
100
AcDbEntity
  8
VISIBLE
100
AcDbLine
 10
1.021779334920188
 20
2.216877554879029
 30
0.0
 11
1.021779334920188
 21
2.211045436443831
 31
0.0
  0
LINE
  5
2F6
330
1F
100
AcDbEntity
  8
VISIBLE
100
AcDbLine
 10
1.097540775761607
 20
2.435581996198957
 30
0.0
 11
1.319774335563098
 21
2.563888601773312
 31
0.0
  0
LINE
  5
2F7
330
1F
100
AcDbEntity
  8
VISIBLE
100
AcDbLine
 10
0.6367596925641077
 20
3.12409273806627
 30
0.0
 11
1.4120012628807
 21
3.571678667375529
 31
0.0
  0
ELLIPSE
  5
2F8
330
1F
100
AcDbEntity
  8
VISIBLE
100
AcDbEllipse
 10
2.640649802819573
 20
1.440739233522859
 30
0.0
 11
-0.02232142857142883
 21
0.0
 31
0.0
210
0.0
220
0.0
230
1.0
 40
0.5773502691896303
 41
0.2702823228237187
 42
2.871310330766074
  0
ELLIPSE
  5
2F9
330
1F
100
AcDbEntity
  8
VISIBLE
100
AcDbEllipse
 10
2.231437007021471
 20
1.647837759156745
 30
0.0
 11
-0.01571428571428557
 21
0.0
 31
0.0
210
0.0
220
0.0
230
1.0
 40
0.5773502691896292
 41
0.3890032944669801
 42
2.752589359122813
  0
ELLIPSE
  5
2FA
330
1F
100
AcDbEntity
  8
VISIBLE
100
AcDbEllipse
 10
2.034507768461005
 20
1.083959388249623
 30
0.0
 11
-0.02232142857142883
 21
0.0
 31
0.0
210
0.0
220
0.0
230
1.0
 40
0.5773502691896203
 41
-3.141592653589793
 42
-0.785398163397474
  0
ELLIPSE
  5
2FB
330
1F
100
AcDbEntity
  8
VISIBLE
100
AcDbEllipse
 10
2.034507768461005
 20
1.083959388249623
 30
0.0
 11
-0.02232142857142883
 21
0.0
 31
0.0
210
0.0
220
0.0
230
1.0
 40
0.5773502691896203
 41
0.0
 42
3.141592653589793
  0
ELLIPSE
  5
2FC
330
1F
100
AcDbEntity
  8
VISIBLE
100
AcDbEllipse
 10
2.034507768461005
 20
1.083959388249623
 30
0.0
 11
-0.02232142857142883
 21
0.0
 31
0.0
210
0.0
220
0.0
230
1.0
 40
0.5773502691896203
 41
-0.7853981633974739
 42
0.0
  0
ELLIPSE
  5
2FD
330
1F
100
AcDbEntity
  8
VISIBLE
100
AcDbEllipse
 10
1.68100488549497
 20
1.994790484866683
 30
0.0
 11
-0.02232142857142883
 21
0.0
 31
0.0
210
0.0
220
0.0
230
1.0
 40
0.5773502691896203
 41
0.2702823228236894
 42
2.871310330766092
  0
ELLIPSE
  5
2FE
330
1F
100
AcDbEntity
  8
VISIBLE
100
AcDbEllipse
 10
1.75161454835917
 20
1.924863384828657
 30
0.0
 11
-0.01571428571428601
 21
0.0
 31
0.0
210
0.0
220
0.0
230
1.0
 40
0.5773502691896129
 41
0.3890032944669789
 42
2.752589359122815
  0
LINE
  5
2FF
330
1F
100
AcDbEntity
  8
VISIBLE
100
AcDbLine
 10
1.319774335563098
 20
2.563888601773313
 30
0.0
 11
1.319774335563098
 21
2.558056483338115
 31
0.0
  0
LINE
  5
300
330
1F
100
AcDbEntity
  8
VISIBLE
100
AcDbLine
 10
1.655793663693244
 20
3.463351637639738
 30
0.0
 11
1.68641711742344
 21
3.445671178385094
 31
0.0
  0
LINE
  5
301
330
1F
100
AcDbEntity
  8
VISIBLE
100
AcDbLine
 10
1.021779334920189
 20
2.391841107934972
 30
0.0
 11
1.021779334920189
 21
2.386008989499773
 31
0.0
  0
ELLIPSE
  5
302
330
1F
100
AcDbEntity
  8
VISIBLE
100
AcDbEllipse
 10
1.63044675064012
 20
1.40472590218552
 30
0.0
 11
-0.06142857142857183
 21
2.220446049250313E-16
 31
0.0
210
0.0
220
0.0
230
1.0
 40
0.5773502691896296
 41
-3.141592653589781
 42
-0.7853981633974514
  0
ELLIPSE
  5
303
330
1F
100
AcDbEntity
  8
VISIBLE
100
AcDbEllipse
 10
1.63044675064012
 20
1.40472590218552
 30
0.0
 11
-0.06142857142857183
 21
2.220446049250313E-16
 31
0.0
210
0.0
220
0.0
230
1.0
 40
0.5773502691896296
 41
0.0
 42
3.141592653589806
  0
ELLIPSE
  5
304
330
1F
100
AcDbEntity
  8
VISIBLE
100
AcDbEllipse
 10
1.63044675064012
 20
1.40472590218552
 30
0.0
 11
-0.06142857142857183
 21
2.220446049250313E-16
 31
0.0
210
0.0
220
0.0
230
1.0
 40
0.5773502691896296
 41
-0.7853981633974515
 42
0.0
  0
ELLIPSE
  5
305
330
1F
100
AcDbEntity
  8
VISIBLE
100
AcDbEllipse
 10
2.753837395436641
 20
1.303830253256588
 30
0.0
 11
-0.05535714285714377
 21
0.0
 31
0.0
210
0.0
220
0.0
230
1.0
 40
0.5773502691896217
 41
-3.141592653589793
 42
-0.7853981633974496
  0
ELLIPSE
  5
306
330
1F
100
AcDbEntity
  8
VISIBLE
100
AcDbEllipse
 10
2.753837395436641
 20
1.303830253256588
 30
0.0
 11
-0.05535714285714377
 21
0.0
 31
0.0
210
0.0
220
0.0
230
1.0
 40
0.5773502691896217
 41
0.0
 42
3.141592653589793
  0
ELLIPSE
  5
307
330
1F
100
AcDbEntity
  8
VISIBLE
100
AcDbEllipse
 10
2.753837395436641
 20
1.303830253256588
 30
0.0
 11
-0.05535714285714377
 21
0.0
 31
0.0
210
0.0
220
0.0
230
1.0
 40
0.5773502691896217
 41
-0.7853981633974496
 42
0.0
  0
ELLIPSE
  5
308
330
1F
100
AcDbEntity
  8
VISIBLE
100
AcDbEllipse
 10
0.6456995425833931
 20
1.760630929693487
 30
0.0
 11
-0.002107142857142974
 21
-0.003649678487377185
 31
0.0
210
0.0
220
0.0
230
0.9999999999999999
 40
0.5773502691896579
 41
0.0
 42
0.7853981633974606
  0
ELLIPSE
  5
309
330
1F
100
AcDbEntity
  8
VISIBLE
100
AcDbEllipse
 10
0.6456995425833931
 20
1.760630929693487
 30
0.0
 11
-0.002107142857142974
 21
-0.003649678487377185
 31
0.0
210
0.0
220
0.0
230
0.9999999999999999
 40
0.5773502691896579
 41
-0.7853981633984882
 42
0.0
  0
LINE
  5
30A
330
1F
100
AcDbEntity
  8
VISIBLE
100
AcDbLine
 10
1.097540775761608
 20
2.610545549254899
 30
0.0
 11
1.319774335563098
 21
2.738852154829255
 31
0.0
  0
ELLIPSE
  5
30B
330
1F
100
AcDbEntity
  8
VISIBLE
100
AcDbEllipse
 10
0.752472666542562
 20
1.806063132303679
 30
0.0
 11
0.01339285714285732
 21
-0.02319710902994077
 31
0.0
210
0.0
220
0.0
230
1.0
 40
0.5773502691896163
 41
-2.259391767607829
 42
-1.996487490607559
  0
LINE
  5
30C
330
1F
100
AcDbEntity
  8
VISIBLE
100
AcDbLine
 10
1.097540775761606
 20
2.6105455492549
 30
0.0
 11
1.102591538484367
 21
2.607629490037301
 31
0.0
  0
LINE
  5
30D
330
1F
100
AcDbEntity
  8
VISIBLE
100
AcDbLine
 10
0.6456995425833938
 20
1.750308080063186
 30
0.0
 11
1.429880962919265
 21
2.203055434187605
 31
0.0
  0
LINE
  5
30E
330
1F
100
AcDbEntity
  8
VISIBLE
100
AcDbLine
 10
1.497258137640924
 20
2.262601363410978
 30
0.0
 11
0.6367596925641056
 21
1.765792354508637
 31
0.0
  0
LINE
  5
30F
330
1F
100
AcDbEntity
  8
VISIBLE
100
AcDbLine
 10
1.319774335563098
 20
2.738852154829255
 30
0.0
 11
1.319774335563098
 21
2.733020036394057
 31
0.0
  0
LINE
  5
310
330
1F
100
AcDbEntity
  8
VISIBLE
100
AcDbLine
 10
0.7995457751186973
 20
2.088570949304673
 30
0.0
 11
0.8045965378414581
 21
2.085654890087074
 31
0.0
  0
LINE
  5
311
330
1F
100
AcDbEntity
  8
VISIBLE
100
AcDbLine
 10
0.7995457751186973
 20
2.082738830869475
 30
0.0
 11
0.7995457751186974
 21
2.088570949304673
 31
0.0
  0
LINE
  5
312
330
1F
100
AcDbEntity
  8
VISIBLE
100
AcDbLine
 10
0.6367596925641059
 20
1.755469504878336
 30
0.0
 11
0.6427195925769641
 21
1.758910454755103
 31
0.0
  0
LINE
  5
313
330
1F
100
AcDbEntity
  8
VISIBLE
100
AcDbLine
 10
0.799545775118697
 20
2.263534502360616
 30
0.0
 11
0.8045965378414582
 21
2.260618443143017
 31
0.0
  0
ELLIPSE
  5
314
330
1F
100
AcDbEntity
  8
VISIBLE
100
AcDbEllipse
 10
2.231437007021471
 20
1.640955859403211
 30
0.0
 11
-0.01571428571428557
 21
2.220446049250313E-16
 31
0.0
210
0.0
220
0.0
230
1.0
 40
0.5773502691896433
 41
-3.141592653589719
 42
-0.7853981633975184
  0
ELLIPSE
  5
315
330
1F
100
AcDbEntity
  8
VISIBLE
100
AcDbEllipse
 10
2.231437007021471
 20
1.640955859403211
 30
0.0
 11
-0.01571428571428557
 21
2.220446049250313E-16
 31
0.0
210
0.0
220
0.0
230
1.0
 40
0.5773502691896433
 41
0.0
 42
3.141592653589867
  0
ELLIPSE
  5
316
330
1F
100
AcDbEntity
  8
VISIBLE
100
AcDbEllipse
 10
2.231437007021471
 20
1.640955859403211
 30
0.0
 11
-0.01571428571428557
 21
2.220446049250313E-16
 31
0.0
210
0.0
220
0.0
230
1.0
 40
0.5773502691896433
 41
-0.7853981633975186
 42
0.0
  0
LINE
  5
317
330
1F
100
AcDbEntity
  8
VISIBLE
100
AcDbLine
 10
0.7650995733319743
 20
1.827932809061769
 30
0.0
 11
0.7650994909554344
 21
1.826125572150549
 31
0.0
  0
ELLIPSE
  5
318
330
1F
100
AcDbEntity
  8
VISIBLE
100
AcDbEllipse
 10
0.6456995425833946
 20
1.760630929693486
 30
0.0
 11
0.004214285714287391
 21
-8.881784197001252E-16
 31
0.0
210
0.0
220
0.0
230
1.0
 40
0.5773502691894691
 41
-3.141592653589884
 42
-2.356194490192405
  0
ELLIPSE
  5
319
330
1F
100
AcDbEntity
  8
VISIBLE
100
AcDbEllipse
 10
0.6456995425833946
 20
1.760630929693486
 30
0.0
 11
0.004214285714287391
 21
-8.881784197001252E-16
 31
0.0
210
0.0
220
0.0
230
1.0
 40
0.5773502691894691
 41
-3.926990816987288
 42
-3.141592653589884
  0
ELLIPSE
  5
31A
330
1F
100
AcDbEntity
  8
VISIBLE
100
AcDbEllipse
 10
2.640649802819573
 20
1.433857333769325
 30
0.0
 11
-0.02232142857142927
 21
0.0
 31
0.0
210
0.0
220
0.0
230
1.0
 40
0.5773502691896187
 41
-3.141592653589758
 42
-0.7853981633974736
  0
ELLIPSE
  5
31B
330
1F
100
AcDbEntity
  8
VISIBLE
100
AcDbEllipse
 10
2.640649802819573
 20
1.433857333769325
 30
0.0
 11
-0.02232142857142927
 21
0.0
 31
0.0
210
0.0
220
0.0
230
1.0
 40
0.5773502691896187
 41
0.0
 42
3.141592653589828
  0
ELLIPSE
  5
31C
330
1F
100
AcDbEntity
  8
VISIBLE
100
AcDbEllipse
 10
2.640649802819573
 20
1.433857333769325
 30
0.0
 11
-0.02232142857142927
 21
0.0
 31
0.0
210
0.0
220
0.0
230
1.0
 40
0.5773502691896187
 41
-0.7853981633974737
 42
0.0
  0
LINE
  5
31D
330
1F
100
AcDbEntity
  8
VISIBLE
100
AcDbLine
 10
2.222691212343104
 20
0.8355556506983961
 30
0.0
 11
0.6393781140119749
 21
1.749681894231349
 31
0.0
  0
LINE
  5
31E
330
1F
100
AcDbEntity
  8
VISIBLE
100
AcDbLine
 10
0.6330566854405482
 20
3.118931313251103
 30
0.0
 11
0.6330566854405462
 21
1.760630929693481
 31
0.0
  0
ELLIPSE
  5
31F
330
1F
100
AcDbEntity
  8
VISIBLE
100
AcDbEllipse
 10
1.336441852548228
 20
2.33952700557125
 30
0.0
 11
-0.1882142857142908
 21
-0.3259967055674253
 31
0.0
210
0.0
220
0.0
230
0.9999999999999999
 40
0.5773502691896374
 41
-0.1730838967972899
 42
-0.145450202525706
  0
ELLIPSE
  5
320
330
1F
100
AcDbEntity
  8
VISIBLE
100
AcDbEllipse
 10
2.890309004205646
 20
2.608690043621438
 30
0.0
 11
0.1428571428571441
 21
-0.2474358296526966
 31
0.0
210
0.0
220
0.0
230
0.9999999999999999
 40
0.5773502691896315
 41
-3.141592653589784
 42
0.0
  0
ELLIPSE
  5
321
330
1F
100
AcDbEntity
  8
VISIBLE
100
AcDbEllipse
 10
2.86505519059184
 20
2.594109747533443
 30
0.0
 11
0.1428571428571441
 21
-0.2474358296526962
 31
0.0
210
0.0
220
0.0
230
0.9999999999999999
 40
0.5773502691896287
 41
-3.141592653589796
 42
0.0
  0
LINE
  5
322
330
1F
100
AcDbEntity
  8
VISIBLE
100
AcDbLine
 10
2.747451861348502
 20
2.856125873274134
 30
0.0
 11
2.722198047734696
 21
2.841545577186139
 31
0.0
  0
LINE
  5
323
330
1F
100
AcDbEntity
  8
VISIBLE
100
AcDbLine
 10
3.03316614706279
 20
2.361254213968741
 30
0.0
 11
3.007912333448984
 21
2.346673917880747
 31
0.0
  0
ELLIPSE
  5
324
330
1F
100
AcDbEntity
  8
VISIBLE
100
AcDbEllipse
 10
2.897885148289786
 20
2.613064132447834
 30
0.0
 11
-0.09590357308262255
 21
0.1661098612064951
 31
0.0
210
0.0
220
0.0
230
1.0
 40
0.5773502691896297
 41
-1.311201425275298
 42
0.0
  0
ELLIPSE
  5
325
330
1F
100
AcDbEntity
  8
VISIBLE
100
AcDbEllipse
 10
2.897885148289786
 20
2.613064132447834
 30
0.0
 11
-0.09590357308262255
 21
0.1661098612064951
 31
0.0
210
0.0
220
0.0
230
1.0
 40
0.5773502691896297
 41
0.0
 42
3.141592653589793
  0
ELLIPSE
  5
326
330
1F
100
AcDbEntity
  8
VISIBLE
100
AcDbEllipse
 10
2.897885148289786
 20
2.613064132447834
 30
0.0
 11
-0.09590357308262255
 21
0.1661098612064951
 31
0.0
210
0.0
220
0.0
230
1.0
 40
0.5773502691896297
 41
3.141592653589793
 42
4.971983881904288
  0
ELLIPSE
  5
327
330
1F
100
AcDbEntity
  8
VISIBLE
100
AcDbEllipse
 10
2.890309004205644
 20
2.608690043621436
 30
0.0
 11
-0.1428571428571446
 21
0.2474358296526962
 31
0.0
210
0.0
220
0.0
230
1.0
 40
0.5773502691896287
 41
0.0
 42
3.141592653589794
  0
ELLIPSE
  5
328
330
1F
100
AcDbEntity
  8
VISIBLE
100
AcDbEllipse
 10
2.897885148289785
 20
2.613064132447834
 30
0.0
 11
-0.1428571428571446
 21
0.2474358296526957
 31
0.0
210
0.0
220
0.0
230
1.0
 40
0.5773502691896311
 41
3.141592653589792
 42
4.971983881904285
  0
ELLIPSE
  5
329
330
1F
100
AcDbEntity
  8
VISIBLE
100
AcDbEllipse
 10
2.897885148289785
 20
2.613064132447834
 30
0.0
 11
-0.1428571428571446
 21
0.2474358296526957
 31
0.0
210
0.0
220
0.0
230
1.0
 40
0.5773502691896311
 41
0.0
 42
3.141592653589792
  0
ELLIPSE
  5
32A
330
1F
100
AcDbEntity
  8
VISIBLE
100
AcDbEllipse
 10
2.897885148289785
 20
2.613064132447834
 30
0.0
 11
-0.1428571428571446
 21
0.2474358296526957
 31
0.0
210
0.0
220
0.0
230
1.0
 40
0.5773502691896311
 41
-1.311201425275302
 42
0.0
  0
ELLIPSE
  5
32B
330
1F
100
AcDbEntity
  8
VISIBLE
100
AcDbEllipse
 10
2.897408343615507
 20
2.415048153295941
 30
0.0
 11
-0.006750000000000255
 21
0.01169134295108964
 31
0.0
210
0.0
220
0.0
230
1.0
 40
0.577350269189615
 41
3.141592653589665
 42
4.971983881904259
  0
ELLIPSE
  5
32C
330
1F
100
AcDbEntity
  8
VISIBLE
100
AcDbEllipse
 10
2.897408343615507
 20
2.415048153295941
 30
0.0
 11
-0.006750000000000255
 21
0.01169134295108964
 31
0.0
210
0.0
220
0.0
230
1.0
 40
0.577350269189615
 41
0.0
 42
3.141592653589665
  0
ELLIPSE
  5
32D
330
1F
100
AcDbEntity
  8
VISIBLE
100
AcDbEllipse
 10
2.897408343615507
 20
2.415048153295941
 30
0.0
 11
-0.006750000000000255
 21
0.01169134295108964
 31
0.0
210
0.0
220
0.0
230
1.0
 40
0.577350269189615
 41
-1.311201425275327
 42
0.0
  0
ELLIPSE
  5
32E
330
1F
100
AcDbEntity
  8
VISIBLE
100
AcDbEllipse
 10
3.046744134989903
 20
2.625985908187987
 30
0.0
 11
-0.006749999999999812
 21
0.01169134295109009
 31
0.0
210
0.0
220
0.0
230
0.9999999999999998
 40
0.5773502691895918
 41
3.141592653589842
 42
4.971983881904327
  0
ELLIPSE
  5
32F
330
1F
100
AcDbEntity
  8
VISIBLE
100
AcDbEllipse
 10
3.046744134989903
 20
2.625985908187987
 30
0.0
 11
-0.006749999999999812
 21
0.01169134295109009
 31
0.0
210
0.0
220
0.0
230
0.9999999999999998
 40
0.5773502691895918
 41
0.0
 42
3.141592653589842
  0
ELLIPSE
  5
330
330
1F
100
AcDbEntity
  8
VISIBLE
100
AcDbEllipse
 10
3.046744134989903
 20
2.625985908187987
 30
0.0
 11
-0.006749999999999812
 21
0.01169134295109009
 31
0.0
210
0.0
220
0.0
230
0.9999999999999998
 40
0.5773502691895918
 41
-1.311201425275259
 42
0.0
  0
ELLIPSE
  5
331
330
1F
100
AcDbEntity
  8
VISIBLE
100
AcDbEllipse
 10
2.890309004205644
 20
2.608690043621436
 30
0.0
 11
-0.0959035730826221
 21
0.1661098612064951
 31
0.0
210
0.0
220
0.0
230
1.0
 40
0.5773502691896285
 41
-1.311201425275301
 42
-0.0395090360774615
  0
ELLIPSE
  5
332
330
1F
100
AcDbEntity
  8
VISIBLE
100
AcDbEllipse
 10
2.890309004205644
 20
2.608690043621436
 30
0.0
 11
-0.0959035730826221
 21
0.1661098612064951
 31
0.0
210
0.0
220
0.0
230
1.0
 40
0.5773502691896285
 41
3.181101689667252
 42
4.971983881904285
  0
ELLIPSE
  5
333
330
1F
100
AcDbEntity
  8
VISIBLE
100
AcDbEllipse
 10
2.749355773139231
 20
2.798341946814711
 30
0.0
 11
-0.006750000000000256
 21
0.01169134295109009
 31
0.0
210
0.0
220
0.0
230
1.0
 40
0.5773502691895539
 41
3.14159265358985
 42
4.971983881904264
  0
ELLIPSE
  5
334
330
1F
100
AcDbEntity
  8
VISIBLE
100
AcDbEllipse
 10
2.749355773139231
 20
2.798341946814711
 30
0.0
 11
-0.006750000000000256
 21
0.01169134295109009
 31
0.0
210
0.0
220
0.0
230
1.0
 40
0.5773502691895539
 41
0.0
 42
3.14159265358985
  0
ELLIPSE
  5
335
330
1F
100
AcDbEntity
  8
VISIBLE
100
AcDbEllipse
 10
2.749355773139231
 20
2.798341946814711
 30
0.0
 11
-0.006750000000000256
 21
0.01169134295109009
 31
0.0
210
0.0
220
0.0
230
1.0
 40
0.5773502691895539
 41
-1.311201425275322
 42
0.0
  0
LINE
  5
336
330
1F
100
AcDbEntity
  8
VISIBLE
100
AcDbLine
 10
2.7474518613485
 20
2.856125873274131
 30
0.0
 11
2.755028005432643
 21
2.86049996210053
 31
0.0
  0
LINE
  5
337
330
1F
100
AcDbEntity
  8
VISIBLE
100
AcDbLine
 10
3.03316614706279
 20
2.36125421396874
 30
0.0
 11
3.040742291146931
 21
2.365628302795138
 31
0.0
  0
ELLIPSE
  5
338
330
1F
100
AcDbEntity
  8
VISIBLE
100
AcDbEllipse
 10
3.03122528417068
 20
1.307679451423817
 30
0.0
 11
0.03571428571428603
 21
2.220446049250313E-16
 31
0.0
210
0.0
220
0.0
230
1.0
 40
0.5773502691896131
 41
3.926990816987249
 42
5.497787143782132
  0
ELLIPSE
  5
339
330
1F
100
AcDbEntity
  8
VISIBLE
100
AcDbEllipse
 10
3.129260588619472
 20
1.345442418291725
 30
0.0
 11
-0.006321428571428367
 21
-0.01094903546213133
 31
0.0
210
0.0
220
0.0
230
1.0
 40
0.5773502691895934
 41
0.7853981633974828
 42
2.356194490192346
  0
LINE
  5
33A
330
1F
100
AcDbEntity
  8
VISIBLE
100
AcDbLine
 10
1.417961162893562
 20
2.220260183571426
 30
0.0
 11
1.412001262880704
 21
2.223701133448193
 31
0.0
  0
LINE
  5
33B
330
1F
100
AcDbEntity
  8
VISIBLE
100
AcDbLine
 10
1.644740409145534
 20
3.413801804367856
 30
0.0
 11
1.644740409145534
 21
3.459411804464804
 31
0.0
  0
ELLIPSE
  5
33C
330
1F
100
AcDbEntity
  8
VISIBLE
100
AcDbEllipse
 10
1.677065290571204
 20
2.352999199156534
 30
0.0
 11
0.02678571428571486
 21
-0.04639421805988064
 31
0.0
210
0.0
220
0.0
230
1.0
 40
0.5773502691896238
 41
-3.141592653589798
 42
-2.904645122209165
  0
ELLIPSE
  5
33D
330
1F
100
AcDbEntity
  8
VISIBLE
100
AcDbEllipse
 10
1.677065290571204
 20
2.352999199156534
 30
0.0
 11
0.02678571428571486
 21
-0.04639421805988064
 31
0.0
210
0.0
220
0.0
230
1.0
 40
0.5773502691896238
 41
-4.949336511765329
 42
-3.141592653589798
  0
LINE
  5
33E
330
1F
100
AcDbEntity
  8
VISIBLE
100
AcDbLine
 10
1.521956367355211
 20
2.276860892985024
 30
0.0
 11
1.527916267368069
 21
2.280301842861791
 31
0.0
  0
LINE
  5
33F
330
1F
100
AcDbEntity
  8
VISIBLE
100
AcDbLine
 10
3.129260588619472
 20
1.335119568661424
 30
0.0
 11
3.056479097784486
 21
1.293099155335822
 31
0.0
  0
ELLIPSE
  5
340
330
1F
100
AcDbEntity
  8
VISIBLE
100
AcDbEllipse
 10
1.671105390558346
 20
2.349558249279768
 30
0.0
 11
0.02678571428571441
 21
-0.04639421805988064
 31
0.0
210
0.0
220
0.0
230
0.9999999999999997
 40
0.5773502691896222
 41
-4.949336511765322
 42
-3.25307489934122
  0
LINE
  5
341
330
1F
100
AcDbEntity
  8
VISIBLE
100
AcDbLine
 10
1.703430271984017
 20
2.30809047023866
 30
0.0
 11
1.703430271984017
 21
2.353700470335607
 31
0.0
  0
ELLIPSE
  5
342
330
1F
100
AcDbEntity
  8
VISIBLE
100
AcDbEllipse
 10
1.671105390558346
 20
2.349558249279768
 30
0.0
 11
0.02678571428571441
 21
-0.04639421805988064
 31
0.0
210
0.0
220
0.0
230
0.9999999999999997
 40
0.5773502691896222
 41
0.111482245751443
 42
0.2369475313806225
  0
ELLIPSE
  5
343
330
1F
100
AcDbEntity
  8
VISIBLE
100
AcDbEllipse
 10
3.129260588619474
 20
2.728004414539772
 30
0.0
 11
0.006321428571428811
 21
0.010949035462132
 31
0.0
210
0.0
220
0.0
230
1.0
 40
0.577350269189644
 41
-0.7853981633973588
 42
0.0
  0
LINE
  5
344
330
1F
100
AcDbEntity
  8
VISIBLE
100
AcDbLine
 10
1.709390171996877
 20
3.422086246479537
 30
0.0
 11
1.703430271984018
 21
3.41864529660277
 31
0.0
  0
LINE
  5
345
330
1F
100
AcDbEntity
  8
VISIBLE
100
AcDbLine
 10
1.420941112899991
 20
2.215098758756276
 30
0.0
 11
1.420941112899991
 21
2.208216859002743
 31
0.0
  0
LINE
  5
346
330
1F
100
AcDbEntity
  8
VISIBLE
100
AcDbLine
 10
1.709390171996876
 20
3.422086246479537
 30
0.0
 11
1.709390171996876
 21
3.376476246382589
 31
0.0
  0
LINE
  5
347
330
1F
100
AcDbEntity
  8
VISIBLE
100
AcDbLine
 10
1.518976417348782
 20
2.271699468169873
 30
0.0
 11
1.420941112899991
 21
2.215098758756276
 31
0.0
  0
ELLIPSE
  5
348
330
1F
100
AcDbEntity
  8
VISIBLE
100
AcDbEllipse
 10
1.518976417348792
 20
2.275140418046632
 30
0.0
 11
-0.002107142857140643
 21
-0.003649678487368746
 31
0.0
210
0.0
220
0.0
230
0.9999999999999999
 40
0.5773502691880069
 41
0.7853981633994936
 42
2.356194490195408
  0
LINE
  5
349
330
1F
100
AcDbEntity
  8
VISIBLE
100
AcDbLine
 10
1.709390171996875
 20
2.357141420212374
 30
0.0
 11
1.709390171996875
 21
2.311531420115427
 31
0.0
  0
ELLIPSE
  5
34A
330
1F
100
AcDbEntity
  8
VISIBLE
100
AcDbEllipse
 10
1.518976417348783
 20
3.657702414294688
 30
0.0
 11
0.00632142857142881
 21
0.01094903546213155
 31
0.0
210
0.0
220
0.0
230
1.0
 40
0.5773502691896135
 41
0.0
 42
0.7853981633974904
  0
ELLIPSE
  5
34B
330
1F
100
AcDbEntity
  8
VISIBLE
100
AcDbEllipse
 10
1.518976417348783
 20
3.657702414294688
 30
0.0
 11
0.00632142857142881
 21
0.01094903546213155
 31
0.0
210
0.0
220
0.0
230
1.0
 40
0.5773502691896135
 41
-0.7853981633974386
 42
0.0
  0
ELLIPSE
  5
34C
330
1F
100
AcDbEntity
  8
VISIBLE
100
AcDbEllipse
 10
1.518976417348783
 20
2.275140418046641
 30
0.0
 11
-0.004214285714284838
 21
0.0
 31
0.0
210
0.0
220
0.0
230
1.0
 40
0.5773502691895555
 41
-2.356194490192442
 42
-0.7853981633972023
  0
ELLIPSE
  5
34D
330
1F
100
AcDbEntity
  8
VISIBLE
100
AcDbEllipse
 10
1.677065290571204
 20
2.352999199156534
 30
0.0
 11
0.02678571428571486
 21
-0.04639421805988064
 31
0.0
210
0.0
220
0.0
230
1.0
 40
0.5773502691896238
 41
0.0
 42
0.2369475313806292
  0
ELLIPSE
  5
34E
330
1F
100
AcDbEntity
  8
VISIBLE
100
AcDbEllipse
 10
1.677065290571204
 20
2.352999199156534
 30
0.0
 11
0.02678571428571486
 21
-0.04639421805988064
 31
0.0
210
0.0
220
0.0
230
1.0
 40
0.5773502691896238
 41
-1.807743858175535
 42
0.0
  0
LINE
  5
34F
330
1F
100
AcDbEntity
  8
VISIBLE
100
AcDbLine
 10
1.518976417348784
 20
3.668025263924988
 30
0.0
 11
1.510036567329496
 21
3.662863839109837
 31
0.0
  0
ELLIPSE
  5
350
330
1F
100
AcDbEntity
  8
VISIBLE
100
AcDbEllipse
 10
1.671105390558347
 20
3.41450307554693
 30
0.0
 11
0.02678571428571485
 21
-0.0463942180598802
 31
0.0
210
0.0
220
0.0
230
1.0
 40
0.577350269189628
 41
-4.949336511765343
 42
-3.253074899341245
  0
LINE
  5
351
330
1F
100
AcDbEntity
  8
VISIBLE
100
AcDbLine
 10
3.138200438638761
 20
2.733165839354923
 30
0.0
 11
3.138200438638759
 21
1.350603843106875
 31
0.0
  0
LINE
  5
352
330
1F
100
AcDbEntity
  8
VISIBLE
100
AcDbLine
 10
1.709390171996876
 20
3.376476246382589
 30
0.0
 11
1.703430271984018
 21
3.373035296505822
 31
0.0
  0
LINE
  5
353
330
1F
100
AcDbEntity
  8
VISIBLE
100
AcDbLine
 10
1.703430271984018
 20
3.373035296505822
 30
0.0
 11
1.703430271984018
 21
3.41864529660277
 31
0.0
  0
LINE
  5
354
330
1F
100
AcDbEntity
  8
VISIBLE
100
AcDbLine
 10
1.420941112899991
 20
2.208216859002742
 30
0.0
 11
1.518976417348782
 21
2.264817568416339
 31
0.0
  0
ELLIPSE
  5
355
330
1F
100
AcDbEntity
  8
VISIBLE
100
AcDbEllipse
 10
1.671105390558347
 20
3.41450307554693
 30
0.0
 11
0.02678571428571485
 21
-0.0463942180598802
 31
0.0
210
0.0
220
0.0
230
1.0
 40
0.577350269189628
 41
0.1114822457514297
 42
0.2369475313806202
  0
LINE
  5
356
330
1F
100
AcDbEntity
  8
VISIBLE
100
AcDbLine
 10
1.644740409145534
 20
2.348856978100694
 30
0.0
 11
1.644740409145534
 21
2.394466978197642
 31
0.0
  0
ELLIPSE
  5
357
330
1F
100
AcDbEntity
  8
VISIBLE
100
AcDbEllipse
 10
1.677065290571206
 20
3.417944025423697
 30
0.0
 11
0.02678571428571441
 21
-0.0463942180598802
 31
0.0
210
0.0
220
0.0
230
0.9999999999999999
 40
0.5773502691896304
 41
-3.141592653589801
 42
-2.904645122209161
  0
ELLIPSE
  5
358
330
1F
100
AcDbEntity
  8
VISIBLE
100
AcDbEllipse
 10
1.677065290571206
 20
3.417944025423697
 30
0.0
 11
0.02678571428571441
 21
-0.0463942180598802
 31
0.0
210
0.0
220
0.0
230
0.9999999999999999
 40
0.5773502691896304
 41
-4.949336511765337
 42
-3.141592653589801
  0
ELLIPSE
  5
359
330
1F
100
AcDbEntity
  8
VISIBLE
100
AcDbEllipse
 10
1.518976417348782
 20
2.27514041804664
 30
0.0
 11
0.006321428571428589
 21
0.01094903546213155
 31
0.0
210
0.0
220
0.0
230
1.0
 40
0.5773502691896186
 41
3.926990816987261
 42
5.497787143782117
  0
LINE
  5
35A
330
1F
100
AcDbEntity
  8
VISIBLE
100
AcDbLine
 10
1.417961162893562
 20
2.220260183571426
 30
0.0
 11
1.515996467342353
 21
2.276860892985023
 31
0.0
  0
ELLIPSE
  5
35B
330
1F
100
AcDbEntity
  8
VISIBLE
100
AcDbEllipse
 10
1.518976417348783
 20
3.657702414294688
 30
0.0
 11
0.0126428571428574
 21
-4.440892098500626E-16
 31
0.0
210
0.0
220
0.0
230
1.0
 40
0.5773502691895992
 41
-5.497787143782085
 42
-3.926990816987206
  0
LINE
  5
35C
330
1F
100
AcDbEntity
  8
VISIBLE
100
AcDbLine
 10
1.412001262880706
 20
3.60626312969624
 30
0.0
 11
1.510036567329496
 21
3.662863839109838
 31
0.0
  0
ELLIPSE
  5
35D
330
1F
100
AcDbEntity
  8
VISIBLE
100
AcDbEllipse
 10
1.677065290571206
 20
3.417944025423697
 30
0.0
 11
0.02678571428571441
 21
-0.0463942180598802
 31
0.0
210
0.0
220
0.0
230
0.9999999999999999
 40
0.5773502691896304
 41
0.0
 42
0.2369475313806207
  0
ELLIPSE
  5
35E
330
1F
100
AcDbEntity
  8
VISIBLE
100
AcDbEllipse
 10
1.677065290571206
 20
3.417944025423697
 30
0.0
 11
0.02678571428571441
 21
-0.0463942180598802
 31
0.0
210
0.0
220
0.0
230
0.9999999999999999
 40
0.5773502691896304
 41
-1.807743858175528
 42
0.0
  0
LINE
  5
35F
330
1F
100
AcDbEntity
  8
VISIBLE
100
AcDbLine
 10
1.709390171996875
 20
2.357141420212374
 30
0.0
 11
1.703430271984017
 21
2.353700470335607
 31
0.0
  0
LINE
  5
360
330
1F
100
AcDbEntity
  8
VISIBLE
100
AcDbLine
 10
1.510036567329495
 20
2.28030184286179
 30
0.0
 11
1.412001262880704
 21
2.223701133448193
 31
0.0
  0
LINE
  5
361
330
1F
100
AcDbEntity
  8
VISIBLE
100
AcDbLine
 10
1.412001262880704
 20
2.223701133448193
 30
0.0
 11
1.412001262880706
 21
3.60626312969624
 31
0.0
  0
LINE
  5
362
330
1F
100
AcDbEntity
  8
VISIBLE
100
AcDbLine
 10
1.709390171996875
 20
2.311531420115427
 30
0.0
 11
1.703430271984017
 21
2.30809047023866
 31
0.0
  0
LINE
  5
363
330
1F
100
AcDbEntity
  8
VISIBLE
100
AcDbLine
 10
3.005971470556875
 20
1.293099155335822
 30
0.0
 11
1.420941112899991
 21
2.208216859002742
 31
0.0
  0
ELLIPSE
  5
364
330
1F
100
AcDbEntity
  8
VISIBLE
100
AcDbEllipse
 10
1.518976417348782
 20
2.27514041804664
 30
0.0
 11
-0.01264285714285696
 21
0.0
 31
0.0
210
0.0
220
0.0
230
1.0
 40
0.5773502691896195
 41
-2.356194490192326
 42
-0.7853981633974545
  0
LINE
  5
365
330
1F
100
AcDbEntity
  8
VISIBLE
100
AcDbLine
 10
1.525297845920212
 20
3.668651449756819
 30
0.0
 11
3.135582017190903
 21
2.738953450001906
 31
0.0
  0
LINE
  5
366
330
1F
100
AcDbEntity
  8
VISIBLE
100
AcDbLine
 10
3.13820043863876
 20
1.352295157453082
 30
0.0
 11
3.138907545419946
 21
1.351886909162619
 31
0.0
  0
ELLIPSE
  5
367
330
1F
100
AcDbEntity
  8
VISIBLE
100
AcDbEllipse
 10
3.126482669121956
 20
2.703596998888465
 30
0.0
 11
-0.01757142857142879
 21
0.0
 31
0.0
210
0.0
220
0.0
230
1.0
 40
0.5773502691896213
 41
-3.141592653589793
 42
-2.356194490192345
  0
LINE
  5
368
330
1F
100
AcDbEntity
  8
VISIBLE
100
AcDbLine
 10
3.138907545419948
 20
2.710770504563758
 30
0.0
 11
3.138200438638761
 21
2.711178752854222
 31
0.0
  0
ELLIPSE
  5
369
330
1F
100
AcDbEntity
  8
VISIBLE
100
AcDbEllipse
 10
3.126482669121953
 20
1.344713403487325
 30
0.0
 11
-0.01757142857142879
 21
2.220446049250313E-16
 31
0.0
210
0.0
220
0.0
230
1.0
 40
0.5773502691896213
 41
3.141592653589793
 42
3.926990816987304
  0
ELLIPSE
  5
36A
330
1F
100
AcDbEntity
  8
VISIBLE
100
AcDbEllipse
 10
3.126482669121953
 20
1.344713403487325
 30
0.0
 11
-0.01757142857142879
 21
2.220446049250313E-16
 31
0.0
210
0.0
220
0.0
230
1.0
 40
0.5773502691896213
 41
1.680843875352886
 42
3.141592653589793
  0
LINE
  5
36B
330
1F
100
AcDbEntity
  8
VISIBLE
100
AcDbLine
 10
3.144054097693385
 20
2.703596998888467
 30
0.0
 11
3.144054097693382
 21
1.344713403487326
 31
0.0
  0
ELLIPSE
  5
36C
330
1F
100
AcDbEntity
  8
VISIBLE
100
AcDbEllipse
 10
2.91606789409173
 20
2.24447424734332
 30
0.0
 11
-0.03791885536996542
 21
0.06567738406563661
 31
0.0
210
0.0
220
0.0
230
1.0
 40
0.5773502691896224
 41
0.0
 42
0.7853981633974475
  0
ELLIPSE
  5
36D
330
1F
100
AcDbEntity
  8
VISIBLE
100
AcDbEllipse
 10
2.91606789409173
 20
2.24447424734332
 30
0.0
 11
-0.03791885536996542
 21
0.06567738406563661
 31
0.0
210
0.0
220
0.0
230
1.0
 40
0.5773502691896224
 41
3.141592653589812
 42
6.283185307179586
  0
ELLIPSE
  5
36E
330
1F
100
AcDbEntity
  8
VISIBLE
100
AcDbEllipse
 10
2.91606789409173
 20
2.24447424734332
 30
0.0
 11
-0.03791885536996542
 21
0.06567738406563661
 31
0.0
210
0.0
220
0.0
230
1.0
 40
0.5773502691896224
 41
0.7853981633974475
 42
3.141592653589812
  0
ELLIPSE
  5
36F
330
1F
100
AcDbEntity
  8
VISIBLE
100
AcDbEllipse
 10
2.865055190591844
 20
2.215022049245571
 30
0.0
 11
0.04167857142857034
 21
-0.07218940330117452
 31
0.0
210
0.0
220
0.0
230
1.0
 40
0.577350269189634
 41
-0.7853981633974261
 42
0.0
  0
ELLIPSE
  5
370
330
1F
100
AcDbEntity
  8
VISIBLE
100
AcDbEllipse
 10
2.865055190591844
 20
2.215022049245571
 30
0.0
 11
0.04167857142857034
 21
-0.07218940330117452
 31
0.0
210
0.0
220
0.0
230
1.0
 40
0.577350269189634
 41
-3.141592653589756
 42
-0.7853981633974261
  0
ELLIPSE
  5
371
330
1F
100
AcDbEntity
  8
VISIBLE
100
AcDbEllipse
 10
2.91606789409173
 20
2.24447424734332
 30
0.0
 11
0.04167857142857034
 21
-0.07218940330117452
 31
0.0
210
0.0
220
0.0
230
1.0
 40
0.577350269189634
 41
-0.7853981633974261
 42
0.0
  0
ELLIPSE
  5
372
330
1F
100
AcDbEntity
  8
VISIBLE
100
AcDbEllipse
 10
2.91606789409173
 20
2.24447424734332
 30
0.0
 11
0.04167857142857034
 21
-0.07218940330117452
 31
0.0
210
0.0
220
0.0
230
1.0
 40
0.577350269189634
 41
0.0
 42
3.14159265358983
  0
ELLIPSE
  5
373
330
1F
100
AcDbEntity
  8
VISIBLE
100
AcDbEllipse
 10
2.91606789409173
 20
2.24447424734332
 30
0.0
 11
0.04167857142857034
 21
-0.07218940330117452
 31
0.0
210
0.0
220
0.0
230
1.0
 40
0.577350269189634
 41
-3.141592653589756
 42
-0.7853981633974261
  0
ELLIPSE
  5
374
330
1F
100
AcDbEntity
  8
VISIBLE
100
AcDbEllipse
 10
2.914047589002626
 20
2.243307823656281
 30
0.0
 11
-0.03791885536996542
 21
0.06567738406563661
 31
0.0
210
0.0
220
0.0
230
1.0
 40
0.5773502691896324
 41
3.168235653595072
 42
6.256542307174346
  0
LINE
  5
375
330
1F
100
AcDbEntity
  8
VISIBLE
100
AcDbLine
 10
2.906733762020413
 20
2.142832645944396
 30
0.0
 11
2.957746465520299
 21
2.172284844042147
 31
0.0
  0
LINE
  5
376
330
1F
100
AcDbEntity
  8
VISIBLE
100
AcDbLine
 10
2.82337661916327
 20
2.287211452546745
 30
0.0
 11
2.874389322663156
 21
2.316663650644495
 31
0.0
  0
LINE
  5
377
330
1F
100
AcDbEntity
  8
TANGENT_EDGES
100
AcDbLine
 10
0.7591396733191159
 20
1.824491859184999
 30
0.0
 11
0.7650995733319741
 21
1.827932809061765
 31
0.0
  0
LINE
  5
378
330
1F
100
AcDbEntity
  8
TANGENT_EDGES
100
AcDbLine
 10
0.6456995425833932
 20
1.75718997981672
 30
0.0
 11
0.6427195925769641
 21
1.758910454755103
 31
0.0
  0
LINE
  5
379
330
1F
100
AcDbEntity
  8
TANGENT_EDGES
100
AcDbLine
 10
0.6367596925641058
 20
1.765792354508637
 30
0.0
 11
0.6367596925641078
 21
3.12409273806627
 31
0.0
  0
LINE
  5
37A
330
1F
100
AcDbEntity
  8
TANGENT_EDGES
100
AcDbLine
 10
1.497258137640924
 20
2.266042313287754
 30
0.0
 11
1.497258137640924
 21
2.262601363410981
 31
0.0
  0
LINE
  5
37B
330
1F
100
AcDbEntity
  8
TANGENT_EDGES
100
AcDbLine
 10
1.515137837679498
 20
2.26948326316452
 30
0.0
 11
1.515137837679498
 21
2.276365162918054
 31
0.0
  0
LINE
  5
37C
330
1F
100
AcDbEntity
  8
TANGENT_EDGES
100
AcDbLine
 10
2.229012640914534
 20
0.8361818365302288
 30
0.0
 11
0.645699542583393
 21
1.750308080063186
 31
0.0
  0
LINE
  5
37D
330
1F
100
AcDbEntity
  8
TANGENT_EDGES
100
AcDbLine
 10
0.6427195925769641
 20
1.758910454755107
 30
0.0
 11
0.6427195925769641
 21
1.762351404631874
 31
0.0
  0
ELLIPSE
  5
37E
330
1F
100
AcDbEntity
  8
TANGENT_EDGES
100
AcDbEllipse
 10
2.897408343615507
 20
2.41504815329594
 30
0.0
 11
0.00878571428571373
 21
-0.01521730352364026
 31
0.0
210
0.0
220
0.0
230
1.0
 40
0.5773502691896751
 41
0.0
 42
6.283185307179586
  0
ELLIPSE
  5
37F
330
1F
100
AcDbEntity
  8
TANGENT_EDGES
100
AcDbEllipse
 10
3.046744134989902
 20
2.625985908187987
 30
0.0
 11
0.008785714285714619
 21
-0.0152173035236407
 31
0.0
210
0.0
220
0.0
230
0.9999999999999998
 40
0.5773502691896261
 41
0.0
 42
6.283185307179586
  0
ELLIPSE
  5
380
330
1F
100
AcDbEntity
  8
TANGENT_EDGES
100
AcDbEllipse
 10
2.749355773139231
 20
2.798341946814712
 30
0.0
 11
0.008785714285714173
 21
-0.0152173035236407
 31
0.0
210
0.0
220
0.0
230
0.9999999999999998
 40
0.5773502691895989
 41
0.0
 42
6.283185307179586
  0
LINE
  5
381
330
1F
100
AcDbEntity
  8
TANGENT_EDGES
100
AcDbLine
 10
1.527916267368071
 20
3.662863839109838
 30
0.0
 11
3.138200438638761
 21
2.733165839354923
 31
0.0
  0
LINE
  5
382
330
1F
100
AcDbEntity
  8
TANGENT_EDGES
100
AcDbLine
 10
1.527916267368069
 20
2.28030184286179
 30
0.0
 11
1.527916267368071
 21
3.662863839109838
 31
0.0
  0
LINE
  5
383
330
1F
100
AcDbEntity
  8
TANGENT_EDGES
100
AcDbLine
 10
1.518976417348783
 20
2.26481756841634
 30
0.0
 11
3.129260588619472
 21
1.335119568661424
 31
0.0
  0
LINE
  5
384
330
1F
100
AcDbEntity
  8
TANGENT_EDGES
100
AcDbLine
 10
1.510036567329496
 20
3.662863839109838
 30
0.0
 11
1.510036567329495
 21
2.28030184286179
 31
0.0
  0
LINE
  5
385
330
1F
100
AcDbEntity
  8
TANGENT_EDGES
100
AcDbLine
 10
3.138200438638759
 20
1.350603843106875
 30
0.0
 11
1.527916267368069
 21
2.28030184286179
 31
0.0
  0
LINE
  5
386
330
1F
100
AcDbEntity
  8
TANGENT_EDGES
100
AcDbLine
 10
3.138907545419948
 20
2.710770504563758
 30
0.0
 11
3.138907545419945
 21
1.351886909162619
 31
0.0
  0
LINE
  5
387
330
1F
100
AcDbEntity
  8
VISIBLE
100
AcDbLine
 10
9.489701457771648
 20
2.886972315719587
 30
0.0
 11
9.711935017573136
 21
2.758665710145229
 31
0.0
  0
ELLIPSE
  5
388
330
1F
100
AcDbEntity
  8
VISIBLE
100
AcDbEllipse
 10
10.05690211153772
 20
1.983285564185639
 30
0.0
 11
0.008928571428572953
 21
0.01546473935329362
 31
0.0
210
0.0
220
0.0
230
1.0
 40
0.5773502691896019
 41
2.043591686856546
 42
2.3561418586134
  0
LINE
  5
389
330
1F
100
AcDbEntity
  8
VISIBLE
100
AcDbLine
 10
9.489701457771647
 20
2.531213091172503
 30
0.0
 11
9.489701457771647
 21
2.537045209607701
 31
0.0
  0
LINE
  5
38A
330
1F
100
AcDbEntity
  8
VISIBLE
100
AcDbLine
 10
9.489701457771647
 20
2.706176644228446
 30
0.0
 11
9.489701457771647
 21
2.712008762663643
 31
0.0
  0
LINE
  5
38B
330
1F
100
AcDbEntity
  8
VISIBLE
100
AcDbLine
 10
10.00993001821604
 20
2.2308589917598
 30
0.0
 11
9.787696458414553
 21
2.359165597334158
 31
0.0
  0
LINE
  5
38C
330
1F
100
AcDbEntity
  8
VISIBLE
100
AcDbLine
 10
9.36449415815412
 20
2.359893972272971
 30
0.0
 11
10.16377625075135
 21
1.898428240953507
 31
0.0
  0
LINE
  5
38D
330
1F
100
AcDbEntity
  8
VISIBLE
100
AcDbLine
 10
10.00993001821604
 20
2.236691110194998
 30
0.0
 11
10.00487925549328
 21
2.233775050977399
 31
0.0
  0
ELLIPSE
  5
38E
330
1F
100
AcDbEntity
  8
VISIBLE
100
AcDbEllipse
 10
8.77496802487373
 20
1.238961448893493
 30
0.0
 11
-0.02232142857142883
 21
2.220446049250313E-16
 31
0.0
210
0.0
220
0.0
230
1.0
 40
0.5773502691896402
 41
0.7853981633973998
 42
2.871310330766089
  0
ELLIPSE
  5
38F
330
1F
100
AcDbEntity
  8
VISIBLE
100
AcDbEllipse
 10
8.77496802487373
 20
1.238961448893493
 30
0.0
 11
-0.02232142857142883
 21
2.220446049250313E-16
 31
0.0
210
0.0
220
0.0
230
1.0
 40
0.5773502691896402
 41
0.2702823228237194
 42
0.7853981633973999
  0
LINE
  5
390
330
1F
100
AcDbEntity
  8
VISIBLE
100
AcDbLine
 10
10.00993001821604
 20
2.41165466325094
 30
0.0
 11
10.00487925549328
 21
2.408738604033341
 31
0.0
  0
ELLIPSE
  5
391
330
1F
100
AcDbEntity
  8
VISIBLE
100
AcDbEllipse
 10
9.73461294219834
 20
1.793012700237305
 30
0.0
 11
-0.02232142857142883
 21
4.440892098500626E-16
 31
0.0
210
0.0
220
0.0
230
1.0
 40
0.5773502691896203
 41
0.7853981633974287
 42
2.871310330766077
  0
ELLIPSE
  5
392
330
1F
100
AcDbEntity
  8
VISIBLE
100
AcDbEllipse
 10
9.73461294219834
 20
1.793012700237305
 30
0.0
 11
-0.02232142857142883
 21
4.440892098500626E-16
 31
0.0
210
0.0
220
0.0
230
1.0
 40
0.5773502691896203
 41
0.2702823228236953
 42
0.7853981633974287
  0
ELLIPSE
  5
393
330
1F
100
AcDbEntity
  8
VISIBLE
100
AcDbEllipse
 10
8.643597686454722
 20
1.418678178474127
 30
0.0
 11
-0.01571428571428513
 21
-2.220446049250313E-16
 31
0.0
210
0.0
220
0.0
230
1.0
 40
0.5773502691896455
 41
0.0
 42
0.785398163397388
  0
ELLIPSE
  5
394
330
1F
100
AcDbEntity
  8
VISIBLE
100
AcDbEllipse
 10
8.643597686454722
 20
1.418678178474127
 30
0.0
 11
-0.01571428571428513
 21
-2.220446049250313E-16
 31
0.0
210
0.0
220
0.0
230
1.0
 40
0.5773502691896455
 41
3.141592653589744
 42
6.283185307179586
  0
ELLIPSE
  5
395
330
1F
100
AcDbEntity
  8
VISIBLE
100
AcDbEllipse
 10
8.643597686454722
 20
1.418678178474127
 30
0.0
 11
-0.01571428571428513
 21
-2.220446049250313E-16
 31
0.0
210
0.0
220
0.0
230
1.0
 40
0.5773502691896455
 41
0.785398163397388
 42
3.141592653589744
  0
ELLIPSE
  5
396
330
1F
100
AcDbEntity
  8
VISIBLE
100
AcDbEllipse
 10
8.168927005769635
 20
1.582035815844026
 30
0.0
 11
-0.02232142857142883
 21
2.220446049250313E-16
 31
0.0
210
0.0
220
0.0
230
1.0
 40
0.5773502691896203
 41
0.0
 42
0.7853981633973929
  0
ELLIPSE
  5
397
330
1F
100
AcDbEntity
  8
VISIBLE
100
AcDbEllipse
 10
8.168927005769635
 20
1.582035815844026
 30
0.0
 11
-0.02232142857142883
 21
2.220446049250313E-16
 31
0.0
210
0.0
220
0.0
230
1.0
 40
0.5773502691896203
 41
3.141592653589793
 42
6.283185307179586
  0
ELLIPSE
  5
398
330
1F
100
AcDbEntity
  8
VISIBLE
100
AcDbEllipse
 10
8.168927005769635
 20
1.582035815844026
 30
0.0
 11
-0.02232142857142883
 21
2.220446049250313E-16
 31
0.0
210
0.0
220
0.0
230
1.0
 40
0.5773502691896203
 41
0.7853981633973929
 42
3.141592653589793
  0
LINE
  5
399
330
1F
100
AcDbEntity
  8
VISIBLE
100
AcDbLine
 10
9.31509136474202
 20
3.767362771166396
 30
0.0
 11
10.17271610077064
 21
3.272212898956591
 31
0.0
  0
ELLIPSE
  5
39A
330
1F
100
AcDbEntity
  8
VISIBLE
100
AcDbEllipse
 10
10.16377625075135
 20
1.908751090583807
 30
0.0
 11
0.00632142857142881
 21
-0.01094903546213177
 31
0.0
210
0.0
220
0.0
230
1.0
 40
0.577350269189644
 41
0.0
 42
0.785398163397363
  0
ELLIPSE
  5
39B
330
1F
100
AcDbEntity
  8
VISIBLE
100
AcDbEllipse
 10
10.16377625075135
 20
1.908751090583807
 30
0.0
 11
0.00632142857142881
 21
-0.01094903546213177
 31
0.0
210
0.0
220
0.0
230
1.0
 40
0.577350269189644
 41
-0.7853981633974544
 42
0.0
  0
LINE
  5
39C
330
1F
100
AcDbEntity
  8
VISIBLE
100
AcDbLine
 10
10.00993001821604
 20
2.580786097871686
 30
0.0
 11
9.787696458414555
 21
2.709092703446043
 31
0.0
  0
LINE
  5
39D
330
1F
100
AcDbEntity
  8
VISIBLE
100
AcDbLine
 10
10.0442751276268
 20
1.974304146311461
 30
0.0
 11
10.04427520474831
 21
1.975996183535744
 31
0.0
  0
LINE
  5
39E
330
1F
100
AcDbEntity
  8
VISIBLE
100
AcDbLine
 10
9.711935017573134
 20
2.577870038654088
 30
0.0
 11
9.489701457771647
 21
2.706176644228446
 31
0.0
  0
LINE
  5
39F
330
1F
100
AcDbEntity
  8
VISIBLE
100
AcDbLine
 10
9.711935017573136
 20
2.758665710145229
 30
0.0
 11
9.711935017573136
 21
2.75283359171003
 31
0.0
  0
ELLIPSE
  5
3A0
330
1F
100
AcDbEntity
  8
VISIBLE
100
AcDbEllipse
 10
10.16377625075135
 20
1.908751090583807
 30
0.0
 11
0.002107142857143529
 21
-0.003649678487376962
 31
0.0
210
0.0
220
0.0
230
1.0
 40
0.577350269189813
 41
0.0
 42
0.7853981633971224
  0
ELLIPSE
  5
3A1
330
1F
100
AcDbEntity
  8
VISIBLE
100
AcDbEllipse
 10
10.16377625075135
 20
1.908751090583807
 30
0.0
 11
0.002107142857143529
 21
-0.003649678487376962
 31
0.0
210
0.0
220
0.0
230
1.0
 40
0.577350269189813
 41
-0.7853981633974885
 42
0.0
  0
LINE
  5
3A2
330
1F
100
AcDbEntity
  8
VISIBLE
100
AcDbLine
 10
7.786602684287226
 20
2.807819835707325
 30
0.0
 11
7.833537944347706
 21
2.780721750676922
 31
0.0
  0
ELLIPSE
  5
3A3
330
1F
100
AcDbEntity
  8
VISIBLE
100
AcDbEllipse
 10
9.123420145117027
 20
1.702585703899566
 30
0.0
 11
-0.01571428571428513
 21
2.220446049250313E-16
 31
0.0
210
0.0
220
0.0
230
1.0
 40
0.5773502691896455
 41
0.7853981633974552
 42
2.75258935912279
  0
ELLIPSE
  5
3A4
330
1F
100
AcDbEntity
  8
VISIBLE
100
AcDbEllipse
 10
9.123420145117027
 20
1.702585703899566
 30
0.0
 11
-0.01571428571428513
 21
2.220446049250313E-16
 31
0.0
210
0.0
220
0.0
230
1.0
 40
0.5773502691896455
 41
0.3890032944670258
 42
0.7853981633974552
  0
ELLIPSE
  5
3A5
330
1F
100
AcDbEntity
  8
VISIBLE
100
AcDbEllipse
 10
9.353785432902155
 20
2.208317854007761
 30
0.0
 11
-0.05535714285714377
 21
0.0
 31
0.0
210
0.0
220
0.0
230
1.0
 40
0.5773502691896176
 41
0.7853981633974326
 42
3.033720860178901
  0
ELLIPSE
  5
3A6
330
1F
100
AcDbEntity
  8
VISIBLE
100
AcDbEllipse
 10
9.353785432902155
 20
2.208317854007761
 30
0.0
 11
-0.05535714285714377
 21
0.0
 31
0.0
210
0.0
220
0.0
230
1.0
 40
0.5773502691896176
 41
0.1078717934108507
 42
0.7853981633974326
  0
LINE
  5
3A7
330
1F
100
AcDbEntity
  8
VISIBLE
100
AcDbLine
 10
10.17271610077064
 20
1.913912515398957
 30
0.0
 11
9.312217655693829
 21
2.410721524301306
 31
0.0
  0
LINE
  5
3A8
330
1F
100
AcDbEntity
  8
VISIBLE
100
AcDbLine
 10
10.00993001821604
 20
2.586618216306883
 30
0.0
 11
10.00487925549328
 21
2.583702157089284
 31
0.0
  0
LINE
  5
3A9
330
1F
100
AcDbEntity
  8
VISIBLE
100
AcDbLine
 10
9.787696458414555
 20
2.5341291503901
 30
0.0
 11
9.787696458414555
 21
2.539961268825299
 31
0.0
  0
LINE
  5
3AA
330
1F
100
AcDbEntity
  8
VISIBLE
100
AcDbLine
 10
9.489701457771648
 20
2.881140197284388
 30
0.0
 11
9.489701457771648
 21
2.886972315719587
 31
0.0
  0
LINE
  5
3AB
330
1F
100
AcDbEntity
  8
VISIBLE
100
AcDbLine
 10
9.489701457771647
 20
2.537045209607701
 30
0.0
 11
9.711935017573134
 21
2.408738604033344
 31
0.0
  0
LINE
  5
3AC
330
1F
100
AcDbEntity
  8
VISIBLE
100
AcDbLine
 10
9.300297855668113
 20
2.40728057442454
 30
0.0
 11
9.296004707353756
 21
2.409759224759504
 31
0.0
  0
LINE
  5
3AD
330
1F
100
AcDbEntity
  8
VISIBLE
100
AcDbLine
 10
9.711935017573134
 20
2.402906485598145
 30
0.0
 11
9.489701457771647
 21
2.531213091172503
 31
0.0
  0
ELLIPSE
  5
3AE
330
1F
100
AcDbEntity
  8
VISIBLE
100
AcDbEllipse
 10
8.290044295861447
 20
1.62280232370606
 30
0.0
 11
-0.0157142857142869
 21
0.0
 31
0.0
210
0.0
220
0.0
230
1.0
 40
0.5773502691895661
 41
0.0
 42
0.7853981633974557
  0
ELLIPSE
  5
3AF
330
1F
100
AcDbEntity
  8
VISIBLE
100
AcDbEllipse
 10
8.290044295861447
 20
1.62280232370606
 30
0.0
 11
-0.0157142857142869
 21
0.0
 31
0.0
210
0.0
220
0.0
230
1.0
 40
0.5773502691895661
 41
-3.141592653589768
 42
0.0
  0
ELLIPSE
  5
3B0
330
1F
100
AcDbEntity
  8
VISIBLE
100
AcDbEllipse
 10
8.290044295861447
 20
1.62280232370606
 30
0.0
 11
-0.0157142857142869
 21
0.0
 31
0.0
210
0.0
220
0.0
230
1.0
 40
0.5773502691895661
 41
0.7853981633974557
 42
3.141592653589818
  0
ELLIPSE
  5
3B1
330
1F
100
AcDbEntity
  8
VISIBLE
100
AcDbEllipse
 10
8.77496802487373
 20
1.232079549139959
 30
0.0
 11
-0.02232142857142883
 21
2.220446049250313E-16
 31
0.0
210
0.0
220
0.0
230
1.0
 40
0.5773502691896303
 41
0.0
 42
0.7853981633974206
  0
ELLIPSE
  5
3B2
330
1F
100
AcDbEntity
  8
VISIBLE
100
AcDbEllipse
 10
8.77496802487373
 20
1.232079549139959
 30
0.0
 11
-0.02232142857142883
 21
2.220446049250313E-16
 31
0.0
210
0.0
220
0.0
230
1.0
 40
0.5773502691896303
 41
-3.141592653589759
 42
0.0
  0
ELLIPSE
  5
3B3
330
1F
100
AcDbEntity
  8
VISIBLE
100
AcDbEllipse
 10
8.77496802487373
 20
1.232079549139959
 30
0.0
 11
-0.02232142857142883
 21
2.220446049250313E-16
 31
0.0
210
0.0
220
0.0
230
1.0
 40
0.5773502691896303
 41
0.7853981633974206
 42
3.141592653589827
  0
ELLIPSE
  5
3B4
330
1F
100
AcDbEntity
  8
VISIBLE
100
AcDbEllipse
 10
9.179029042694618
 20
1.559727962829385
 30
0.0
 11
-0.06142857142857139
 21
4.440892098500626E-16
 31
0.0
210
0.0
220
0.0
230
1.0
 40
0.5773502691896302
 41
0.7853981633974402
 42
3.044418163129818
  0
ELLIPSE
  5
3B5
330
1F
100
AcDbEntity
  8
VISIBLE
100
AcDbEllipse
 10
9.179029042694618
 20
1.559727962829385
 30
0.0
 11
-0.06142857142857139
 21
4.440892098500626E-16
 31
0.0
210
0.0
220
0.0
230
1.0
 40
0.5773502691896302
 41
0.0971744904599773
 42
0.7853981633974402
  0
LINE
  5
3B6
330
1F
100
AcDbEntity
  8
VISIBLE
100
AcDbLine
 10
9.711935017573134
 20
2.758665710145228
 30
0.0
 11
9.706884254850372
 21
2.755749650927628
 31
0.0
  0
ELLIPSE
  5
3B7
330
1F
100
AcDbEntity
  8
VISIBLE
100
AcDbEllipse
 10
8.643597686454722
 20
1.42556007822766
 30
0.0
 11
-0.01571428571428513
 21
0.0
 31
0.0
210
0.0
220
0.0
230
1.0
 40
0.5773502691896596
 41
0.7853981633973922
 42
2.752589359122776
  0
ELLIPSE
  5
3B8
330
1F
100
AcDbEntity
  8
VISIBLE
100
AcDbEllipse
 10
8.643597686454722
 20
1.42556007822766
 30
0.0
 11
-0.01571428571428513
 21
0.0
 31
0.0
210
0.0
220
0.0
230
1.0
 40
0.5773502691896596
 41
0.3890032944669949
 42
0.7853981633973922
  0
LINE
  5
3B9
330
1F
100
AcDbEntity
  8
VISIBLE
100
AcDbLine
 10
9.300297855668115
 20
2.407280574424544
 30
0.0
 11
9.296004707353763
 21
2.409759224759508
 31
0.0
  0
ELLIPSE
  5
3BA
330
1F
100
AcDbEntity
  8
VISIBLE
100
AcDbEllipse
 10
9.123420145117027
 20
1.695703804146033
 30
0.0
 11
-0.01571428571428513
 21
0.0
 31
0.0
210
0.0
220
0.0
230
1.0
 40
0.5773502691896455
 41
0.0
 42
0.7853981633974044
  0
ELLIPSE
  5
3BB
330
1F
100
AcDbEntity
  8
VISIBLE
100
AcDbEllipse
 10
9.123420145117027
 20
1.695703804146033
 30
0.0
 11
-0.01571428571428513
 21
0.0
 31
0.0
210
0.0
220
0.0
230
1.0
 40
0.5773502691896455
 41
3.141592653589768
 42
6.283185307179586
  0
ELLIPSE
  5
3BC
330
1F
100
AcDbEntity
  8
VISIBLE
100
AcDbEllipse
 10
9.123420145117027
 20
1.695703804146033
 30
0.0
 11
-0.01571428571428513
 21
0.0
 31
0.0
210
0.0
220
0.0
230
1.0
 40
0.5773502691896455
 41
0.7853981633974044
 42
3.141592653589768
  0
LINE
  5
3BD
330
1F
100
AcDbEntity
  8
VISIBLE
100
AcDbLine
 10
9.787696458414555
 20
2.539961268825299
 30
0.0
 11
10.00993001821604
 21
2.411654663250941
 31
0.0
  0
LINE
  5
3BE
330
1F
100
AcDbEntity
  8
VISIBLE
100
AcDbLine
 10
10.00993001821604
 20
2.236691110194998
 30
0.0
 11
10.00993001821604
 21
2.2308589917598
 31
0.0
  0
LINE
  5
3BF
330
1F
100
AcDbEntity
  8
VISIBLE
100
AcDbLine
 10
9.711935017573134
 20
2.583702157089286
 30
0.0
 11
9.711935017573134
 21
2.577870038654088
 31
0.0
  0
ELLIPSE
  5
3C0
330
1F
100
AcDbEntity
  8
VISIBLE
100
AcDbEllipse
 10
9.30327780567456
 20
2.405560099486168
 30
0.0
 11
0.002107142857150635
 21
-0.003649678487387842
 31
0.0
210
0.0
220
0.0
230
1.0
 40
0.5773502691915654
 41
-2.356194490189959
 42
-0.7853981633961666
  0
LINE
  5
3C1
330
1F
100
AcDbEntity
  8
VISIBLE
100
AcDbLine
 10
10.00993001821604
 20
2.586618216306883
 30
0.0
 11
10.00993001821604
 21
2.580786097871686
 31
0.0
  0
ELLIPSE
  5
3C2
330
1F
100
AcDbEntity
  8
VISIBLE
100
AcDbEllipse
 10
8.580463152420199
 20
0.9946248470508696
 30
0.0
 11
0.006321428571428811
 21
-0.010949035462132
 31
0.0
210
0.0
220
0.0
230
1.0
 40
0.5773502691896353
 41
-0.7853981633974516
 42
0.0
  0
ELLIPSE
  5
3C3
330
1F
100
AcDbEntity
  8
VISIBLE
100
AcDbEllipse
 10
10.16377625075135
 20
3.26705147414144
 30
0.0
 11
0.01264285714285585
 21
0.0
 31
0.0
210
0.0
220
0.0
230
1.0
 40
0.5773502691897404
 41
6.283185307179586
 42
7.068583470576961
  0
ELLIPSE
  5
3C4
330
1F
100
AcDbEntity
  8
VISIBLE
100
AcDbEllipse
 10
10.16377625075135
 20
1.908751090583807
 30
0.0
 11
0.01264285714285762
 21
-4.440892098500626E-16
 31
0.0
210
0.0
220
0.0
230
1.0
 40
0.5773502691896242
 41
0.0
 42
0.7853981633974954
  0
ELLIPSE
  5
3C5
330
1F
100
AcDbEntity
  8
VISIBLE
100
AcDbEllipse
 10
10.16377625075135
 20
1.908751090583807
 30
0.0
 11
0.01264285714285762
 21
-4.440892098500626E-16
 31
0.0
210
0.0
220
0.0
230
1.0
 40
0.5773502691896242
 41
-0.7853981633974562
 42
0.0
  0
LINE
  5
3C6
330
1F
100
AcDbEntity
  8
VISIBLE
100
AcDbLine
 10
10.05023510476117
 20
1.972555233658977
 30
0.0
 11
10.05023502763966
 21
1.970863196434694
 31
0.0
  0
LINE
  5
3C7
330
1F
100
AcDbEntity
  8
VISIBLE
100
AcDbLine
 10
9.711935017573134
 20
2.408738604033344
 30
0.0
 11
9.711935017573134
 21
2.402906485598145
 31
0.0
  0
ELLIPSE
  5
3C8
330
1F
100
AcDbEntity
  8
VISIBLE
100
AcDbEllipse
 10
9.303277805674544
 20
2.405560099486166
 30
0.0
 11
0.004214285714278176
 21
-2.220446049250313E-15
 31
0.0
210
0.0
220
0.0
230
1.0
 40
0.5773502691883605
 41
-5.497787143782949
 42
-3.926990816984488
  0
LINE
  5
3C9
330
1F
100
AcDbEntity
  8
VISIBLE
100
AcDbLine
 10
9.711935017573134
 20
2.408738604033343
 30
0.0
 11
9.706884254850372
 21
2.405822544815744
 31
0.0
  0
ELLIPSE
  5
3CA
330
1F
100
AcDbEntity
  8
VISIBLE
100
AcDbEllipse
 10
9.303277805674545
 20
2.405560099486162
 30
0.0
 11
0.006321428571428811
 21
-0.01094903546213244
 31
0.0
210
0.0
220
0.0
230
1.0
 40
0.577350269189609
 41
-2.183734575516962
 42
-1.998321809939097
  0
LINE
  5
3CB
330
1F
100
AcDbEntity
  8
VISIBLE
100
AcDbLine
 10
9.711935017573134
 20
2.583702157089285
 30
0.0
 11
9.706884254850372
 21
2.580786097871686
 31
0.0
  0
ELLIPSE
  5
3CC
330
1F
100
AcDbEntity
  8
VISIBLE
100
AcDbEllipse
 10
10.05690211153772
 20
1.954124972009649
 30
0.0
 11
0.01339285714285765
 21
0.02319710902994099
 31
0.0
210
0.0
220
0.0
230
1.0
 40
0.5773502691896312
 41
-1.14096046987156
 42
-0.877306871147818
  0
LINE
  5
3CD
330
1F
100
AcDbEntity
  8
VISIBLE
100
AcDbLine
 10
9.787696458414555
 20
2.709092703446043
 30
0.0
 11
9.787696458414555
 21
2.714924821881241
 31
0.0
  0
LINE
  5
3CE
330
1F
100
AcDbEntity
  8
VISIBLE
100
AcDbLine
 10
9.787696458414553
 20
2.359165597334158
 30
0.0
 11
9.787696458414553
 21
2.364997715769356
 31
0.0
  0
LINE
  5
3CF
330
1F
100
AcDbEntity
  8
VISIBLE
100
AcDbLine
 10
9.30625775568097
 20
2.407280574424539
 30
0.0
 11
10.16675620075778
 21
1.91047156552219
 31
0.0
  0
ELLIPSE
  5
3D0
330
1F
100
AcDbEntity
  8
VISIBLE
100
AcDbEllipse
 10
9.128571923094245
 20
2.142968966941372
 30
0.0
 11
-0.02232142857142883
 21
0.0
 31
0.0
210
0.0
220
0.0
230
1.0
 40
0.5773502691896104
 41
0.7853981633973901
 42
2.87131033076606
  0
ELLIPSE
  5
3D1
330
1F
100
AcDbEntity
  8
VISIBLE
100
AcDbEllipse
 10
9.128571923094245
 20
2.142968966941372
 30
0.0
 11
-0.02232142857142883
 21
0.0
 31
0.0
210
0.0
220
0.0
230
1.0
 40
0.5773502691896104
 41
0.2702823228237004
 42
0.7853981633973901
  0
ELLIPSE
  5
3D2
330
1F
100
AcDbEntity
  8
VISIBLE
100
AcDbEllipse
 10
8.769866754523752
 20
1.9067098491315
 30
0.0
 11
-0.0157142857142869
 21
2.220446049250313E-16
 31
0.0
210
0.0
220
0.0
230
1.0
 40
0.5773502691895802
 41
0.7853981633973799
 42
2.752589359122772
  0
ELLIPSE
  5
3D3
330
1F
100
AcDbEntity
  8
VISIBLE
100
AcDbEllipse
 10
8.769866754523752
 20
1.9067098491315
 30
0.0
 11
-0.0157142857142869
 21
2.220446049250313E-16
 31
0.0
210
0.0
220
0.0
230
1.0
 40
0.5773502691895802
 41
0.3890032944670001
 42
0.7853981633973799
  0
ELLIPSE
  5
3D4
330
1F
100
AcDbEntity
  8
VISIBLE
100
AcDbEllipse
 10
9.73461294219834
 20
1.786130800483771
 30
0.0
 11
-0.02232142857142883
 21
2.220446049250313E-16
 31
0.0
210
0.0
220
0.0
230
1.0
 40
0.5773502691896303
 41
0.0
 42
0.785398163397396
  0
ELLIPSE
  5
3D5
330
1F
100
AcDbEntity
  8
VISIBLE
100
AcDbEllipse
 10
9.73461294219834
 20
1.786130800483771
 30
0.0
 11
-0.02232142857142883
 21
2.220446049250313E-16
 31
0.0
210
0.0
220
0.0
230
1.0
 40
0.5773502691896303
 41
-3.141592653589759
 42
0.0
  0
ELLIPSE
  5
3D6
330
1F
100
AcDbEntity
  8
VISIBLE
100
AcDbEllipse
 10
9.73461294219834
 20
1.786130800483771
 30
0.0
 11
-0.02232142857142883
 21
2.220446049250313E-16
 31
0.0
210
0.0
220
0.0
230
1.0
 40
0.5773502691896303
 41
0.785398163397396
 42
3.141592653589827
  0
ELLIPSE
  5
3D7
330
1F
100
AcDbEntity
  8
VISIBLE
100
AcDbEllipse
 10
8.168927005769635
 20
1.58891771559756
 30
0.0
 11
-0.02232142857142883
 21
0.0
 31
0.0
210
0.0
220
0.0
230
1.0
 40
0.5773502691896303
 41
0.785398163397397
 42
2.871310330766052
  0
ELLIPSE
  5
3D8
330
1F
100
AcDbEntity
  8
VISIBLE
100
AcDbEllipse
 10
8.168927005769635
 20
1.58891771559756
 30
0.0
 11
-0.02232142857142883
 21
0.0
 31
0.0
210
0.0
220
0.0
230
1.0
 40
0.5773502691896303
 41
0.2702823228237289
 42
0.785398163397397
  0
ELLIPSE
  5
3D9
330
1F
100
AcDbEntity
  8
VISIBLE
100
AcDbEllipse
 10
10.06286201155058
 20
1.979844614308873
 30
0.0
 11
0.008928571428572953
 21
0.01546473935329362
 31
0.0
210
0.0
220
0.0
230
1.0
 40
0.5773502691896019
 41
2.043591686856561
 42
2.35614185861343
  0
LINE
  5
3DA
330
1F
100
AcDbEntity
  8
VISIBLE
100
AcDbLine
 10
9.489701457771647
 20
2.712008762663643
 30
0.0
 11
9.711935017573134
 21
2.583702157089286
 31
0.0
  0
ELLIPSE
  5
3DB
330
1F
100
AcDbEntity
  8
VISIBLE
100
AcDbEllipse
 10
8.290044295861447
 20
1.629684223459594
 30
0.0
 11
-0.01571428571428513
 21
2.220446049250313E-16
 31
0.0
210
0.0
220
0.0
230
1.0
 40
0.5773502691896313
 41
0.7853981633974156
 42
2.752589359122781
  0
ELLIPSE
  5
3DC
330
1F
100
AcDbEntity
  8
VISIBLE
100
AcDbEllipse
 10
8.290044295861447
 20
1.629684223459594
 30
0.0
 11
-0.01571428571428513
 21
2.220446049250313E-16
 31
0.0
210
0.0
220
0.0
230
1.0
 40
0.5773502691896313
 41
0.3890032944670115
 42
0.7853981633974156
  0
ELLIPSE
  5
3DD
330
1F
100
AcDbEntity
  8
VISIBLE
100
AcDbEllipse
 10
10.16377625075135
 20
1.908751090583807
 30
0.0
 11
0.004214285714285282
 21
2.220446049250313E-16
 31
0.0
210
0.0
220
0.0
230
1.0
 40
0.5773502691896527
 41
0.0
 42
0.7853981633973899
  0
ELLIPSE
  5
3DE
330
1F
100
AcDbEntity
  8
VISIBLE
100
AcDbEllipse
 10
10.16377625075135
 20
1.908751090583807
 30
0.0
 11
0.004214285714285282
 21
2.220446049250313E-16
 31
0.0
210
0.0
220
0.0
230
1.0
 40
0.5773502691896527
 41
5.497787143782139
 42
6.283185307179586
  0
LINE
  5
3DF
330
1F
100
AcDbEntity
  8
VISIBLE
100
AcDbLine
 10
9.787696458414555
 20
2.714924821881241
 30
0.0
 11
10.00993001821604
 21
2.586618216306883
 31
0.0
  0
LINE
  5
3E0
330
1F
100
AcDbEntity
  8
VISIBLE
100
AcDbLine
 10
7.801981178145906
 20
2.831066890320218
 30
0.0
 11
7.832604631876099
 21
2.848747349574861
 31
0.0
  0
LINE
  5
3E1
330
1F
100
AcDbEntity
  8
VISIBLE
100
AcDbLine
 10
10.00993001821604
 20
2.411654663250941
 30
0.0
 11
10.00993001821604
 21
2.405822544815742
 31
0.0
  0
ELLIPSE
  5
3E2
330
1F
100
AcDbEntity
  8
VISIBLE
100
AcDbEllipse
 10
9.179029042694618
 20
1.552846063075851
 30
0.0
 11
-0.06142857142857139
 21
2.220446049250313E-16
 31
0.0
210
0.0
220
0.0
230
1.0
 40
0.5773502691896265
 41
0.0
 42
0.7853981633974393
  0
ELLIPSE
  5
3E3
330
1F
100
AcDbEntity
  8
VISIBLE
100
AcDbEllipse
 10
9.179029042694618
 20
1.552846063075851
 30
0.0
 11
-0.06142857142857139
 21
2.220446049250313E-16
 31
0.0
210
0.0
220
0.0
230
1.0
 40
0.5773502691896265
 41
3.141592653589793
 42
6.283185307179586
  0
ELLIPSE
  5
3E4
330
1F
100
AcDbEntity
  8
VISIBLE
100
AcDbEllipse
 10
9.179029042694618
 20
1.552846063075851
 30
0.0
 11
-0.06142857142857139
 21
2.220446049250313E-16
 31
0.0
210
0.0
220
0.0
230
1.0
 40
0.5773502691896265
 41
0.7853981633974393
 42
3.141592653589793
  0
ELLIPSE
  5
3E5
330
1F
100
AcDbEntity
  8
VISIBLE
100
AcDbEllipse
 10
9.353785432902155
 20
2.201435954254227
 30
0.0
 11
-0.05535714285714377
 21
4.440892098500626E-16
 31
0.0
210
0.0
220
0.0
230
1.0
 40
0.5773502691896176
 41
0.0
 42
0.7853981633974418
  0
ELLIPSE
  5
3E6
330
1F
100
AcDbEntity
  8
VISIBLE
100
AcDbEllipse
 10
9.353785432902155
 20
2.201435954254227
 30
0.0
 11
-0.05535714285714377
 21
4.440892098500626E-16
 31
0.0
210
0.0
220
0.0
230
1.0
 40
0.5773502691896176
 41
-3.141592653589779
 42
0.0
  0
ELLIPSE
  5
3E7
330
1F
100
AcDbEntity
  8
VISIBLE
100
AcDbEllipse
 10
9.353785432902155
 20
2.201435954254227
 30
0.0
 11
-0.05535714285714377
 21
4.440892098500626E-16
 31
0.0
210
0.0
220
0.0
230
1.0
 40
0.5773502691896176
 41
0.7853981633974418
 42
3.141592653589807
  0
ELLIPSE
  5
3E8
330
1F
100
AcDbEntity
  8
VISIBLE
100
AcDbEllipse
 10
9.303277805674542
 20
2.405560099486156
 30
0.0
 11
-0.01264285714285762
 21
4.440892098500626E-16
 31
0.0
210
0.0
220
0.0
230
1.0
 40
0.5773502691895891
 41
-2.356194490192204
 42
-1.405947204135727
  0
LINE
  5
3E9
330
1F
100
AcDbEntity
  8
VISIBLE
100
AcDbLine
 10
9.711935017573136
 20
2.75283359171003
 30
0.0
 11
9.489701457771648
 21
2.881140197284388
 31
0.0
  0
LINE
  5
3EA
330
1F
100
AcDbEntity
  8
VISIBLE
100
AcDbLine
 10
10.17271610077064
 20
1.903589665768657
 30
0.0
 11
10.16675620075778
 21
1.907030615645424
 31
0.0
  0
LINE
  5
3EB
330
1F
100
AcDbEntity
  8
VISIBLE
100
AcDbLine
 10
8.580463152420199
 20
0.9843019974205695
 30
0.0
 11
7.796281732084331
 21
1.437049351544992
 31
0.0
  0
LINE
  5
3EC
330
1F
100
AcDbEntity
  8
VISIBLE
100
AcDbLine
 10
9.787696458414553
 20
2.364997715769356
 30
0.0
 11
10.00993001821604
 21
2.236691110194998
 31
0.0
  0
LINE
  5
3ED
330
1F
100
AcDbEntity
  8
VISIBLE
100
AcDbLine
 10
10.16377625075135
 20
1.90531014070704
 30
0.0
 11
9.303277805674545
 21
2.402119149609394
 31
0.0
  0
LINE
  5
3EE
330
1F
100
AcDbEntity
  8
VISIBLE
100
AcDbLine
 10
7.836826250145625
 20
2.785705146192837
 30
0.0
 11
7.789274278502154
 21
2.813159289821692
 31
0.0
  0
ELLIPSE
  5
3EF
330
1F
100
AcDbEntity
  8
VISIBLE
100
AcDbEllipse
 10
8.769866754523752
 20
1.899827949377966
 30
0.0
 11
-0.0157142857142869
 21
0.0
 31
0.0
210
0.0
220
0.0
230
1.0
 40
0.5773502691895943
 41
0.0
 42
0.7853981633974313
  0
ELLIPSE
  5
3F0
330
1F
100
AcDbEntity
  8
VISIBLE
100
AcDbEllipse
 10
8.769866754523752
 20
1.899827949377966
 30
0.0
 11
-0.0157142857142869
 21
0.0
 31
0.0
210
0.0
220
0.0
230
1.0
 40
0.5773502691895943
 41
-3.141592653589793
 42
0.0
  0
ELLIPSE
  5
3F1
330
1F
100
AcDbEntity
  8
VISIBLE
100
AcDbEllipse
 10
8.769866754523752
 20
1.899827949377966
 30
0.0
 11
-0.0157142857142869
 21
0.0
 31
0.0
210
0.0
220
0.0
230
1.0
 40
0.5773502691895943
 41
0.7853981633974313
 42
3.141592653589793
  0
ELLIPSE
  5
3F2
330
1F
100
AcDbEntity
  8
VISIBLE
100
AcDbEllipse
 10
9.128571923094245
 20
2.136087067187838
 30
0.0
 11
-0.02232142857142883
 21
0.0
 31
0.0
210
0.0
220
0.0
230
1.0
 40
0.5773502691896104
 41
0.0
 42
0.7853981633974142
  0
ELLIPSE
  5
3F3
330
1F
100
AcDbEntity
  8
VISIBLE
100
AcDbEllipse
 10
9.128571923094245
 20
2.136087067187838
 30
0.0
 11
-0.02232142857142883
 21
0.0
 31
0.0
210
0.0
220
0.0
230
1.0
 40
0.5773502691896104
 41
3.141592653589759
 42
6.283185307179586
  0
ELLIPSE
  5
3F4
330
1F
100
AcDbEntity
  8
VISIBLE
100
AcDbEllipse
 10
9.128571923094245
 20
2.136087067187838
 30
0.0
 11
-0.02232142857142883
 21
0.0
 31
0.0
210
0.0
220
0.0
230
1.0
 40
0.5773502691896104
 41
0.7853981633974142
 42
3.141592653589759
  0
LINE
  5
3F5
330
1F
100
AcDbEntity
  8
VISIBLE
100
AcDbLine
 10
10.00993001821604
 20
2.405822544815742
 30
0.0
 11
9.787696458414555
 21
2.5341291503901
 31
0.0
  0
LINE
  5
3F6
330
1F
100
AcDbEntity
  8
VISIBLE
100
AcDbLine
 10
10.17009767932278
 20
1.897802055121674
 30
0.0
 11
8.586784580991639
 21
0.9836758115887437
 31
0.0
  0
LINE
  5
3F7
330
1F
100
AcDbEntity
  8
VISIBLE
100
AcDbLine
 10
10.17641910789421
 20
3.267051474141431
 30
0.0
 11
10.17641910789421
 21
1.908751090583806
 31
0.0
  0
ELLIPSE
  5
3F8
330
1F
100
AcDbEntity
  8
VISIBLE
100
AcDbEllipse
 10
8.974069091404974
 20
3.365858332699504
 30
0.0
 11
0.1428571428571423
 21
0.2474358296526979
 31
0.0
210
0.0
220
0.0
230
1.0
 40
0.5773502691896207
 41
3.141592653589803
 42
5.498613295779664
  0
ELLIPSE
  5
3F9
330
1F
100
AcDbEntity
  8
VISIBLE
100
AcDbEllipse
 10
8.974069091404974
 20
3.365858332699504
 30
0.0
 11
0.1428571428571423
 21
0.2474358296526979
 31
0.0
210
0.0
220
0.0
230
1.0
 40
0.5773502691896207
 41
-0.7845720113999227
 42
0.0
  0
ELLIPSE
  5
3FA
330
1F
100
AcDbEntity
  8
VISIBLE
100
AcDbEllipse
 10
8.999322905018781
 20
3.351278036611509
 30
0.0
 11
0.1428571428571406
 21
0.2474358296526979
 31
0.0
210
0.0
220
0.0
230
1.0
 40
0.577350269189628
 41
-0.7845720113999258
 42
0.0
  0
ELLIPSE
  5
3FB
330
1F
100
AcDbEntity
  8
VISIBLE
100
AcDbEllipse
 10
8.999322905018781
 20
3.351278036611509
 30
0.0
 11
0.1428571428571406
 21
0.2474358296526979
 31
0.0
210
0.0
220
0.0
230
1.0
 40
0.577350269189628
 41
3.141592653589785
 42
5.49861329577966
  0
LINE
  5
3FC
330
1F
100
AcDbEntity
  8
VISIBLE
100
AcDbLine
 10
8.831211948547834
 20
3.118422503046808
 30
0.0
 11
8.856465762161639
 21
3.103842206958813
 31
0.0
  0
LINE
  5
3FD
330
1F
100
AcDbEntity
  8
VISIBLE
100
AcDbLine
 10
9.116926234262117
 20
3.613294162352203
 30
0.0
 11
9.142180047875923
 21
3.598713866264208
 31
0.0
  0
ELLIPSE
  5
3FE
330
1F
100
AcDbEntity
  8
VISIBLE
100
AcDbEllipse
 10
8.966492947320834
 20
3.370232421525906
 30
0.0
 11
0.09590357308261943
 21
0.166109861206496
 31
0.0
210
0.0
220
0.0
230
1.0
 40
0.5773502691896223
 41
0.2595949015195855
 42
3.141592653589783
  0
ELLIPSE
  5
3FF
330
1F
100
AcDbEntity
  8
VISIBLE
100
AcDbEllipse
 10
8.966492947320834
 20
3.370232421525906
 30
0.0
 11
0.09590357308261943
 21
0.166109861206496
 31
0.0
210
0.0
220
0.0
230
1.0
 40
0.5773502691896223
 41
3.141592653589783
 42
6.283185307179586
  0
ELLIPSE
  5
400
330
1F
100
AcDbEntity
  8
VISIBLE
100
AcDbEllipse
 10
8.966492947320834
 20
3.370232421525906
 30
0.0
 11
0.09590357308261943
 21
0.166109861206496
 31
0.0
210
0.0
220
0.0
230
1.0
 40
0.5773502691896223
 41
0.0
 42
0.2595949015195855
  0
ELLIPSE
  5
401
330
1F
100
AcDbEntity
  8
VISIBLE
100
AcDbEllipse
 10
8.974069091404974
 20
3.365858332699507
 30
0.0
 11
0.1428571428571423
 21
0.2474358296526979
 31
0.0
210
0.0
220
0.0
230
1.0
 40
0.5773502691896137
 41
3.141592653589803
 42
6.283185307179586
  0
ELLIPSE
  5
402
330
1F
100
AcDbEntity
  8
VISIBLE
100
AcDbEllipse
 10
8.966492947320834
 20
3.370232421525906
 30
0.0
 11
0.1428571428571406
 21
0.2474358296526971
 31
0.0
210
0.0
220
0.0
230
1.0
 40
0.5773502691896226
 41
0.0
 42
0.2595949015195986
  0
ELLIPSE
  5
403
330
1F
100
AcDbEntity
  8
VISIBLE
100
AcDbEllipse
 10
8.966492947320834
 20
3.370232421525906
 30
0.0
 11
0.1428571428571406
 21
0.2474358296526971
 31
0.0
210
0.0
220
0.0
230
1.0
 40
0.5773502691896226
 41
3.141592653589787
 42
6.283185307179586
  0
ELLIPSE
  5
404
330
1F
100
AcDbEntity
  8
VISIBLE
100
AcDbEllipse
 10
8.966492947320834
 20
3.370232421525906
 30
0.0
 11
0.1428571428571406
 21
0.2474358296526971
 31
0.0
210
0.0
220
0.0
230
1.0
 40
0.5773502691896226
 41
0.2595949015195986
 42
3.141592653589787
  0
ELLIPSE
  5
405
330
1F
100
AcDbEntity
  8
VISIBLE
100
AcDbEllipse
 10
8.966016142646554
 20
3.171665875759921
 30
0.0
 11
0.006750000000000255
 21
0.01169134295108964
 31
0.0
210
0.0
220
0.0
230
1.0
 40
0.5773502691896599
 41
0.0
 42
0.2595949015196005
  0
ELLIPSE
  5
406
330
1F
100
AcDbEntity
  8
VISIBLE
100
AcDbEllipse
 10
8.966016142646554
 20
3.171665875759921
 30
0.0
 11
0.006750000000000255
 21
0.01169134295108964
 31
0.0
210
0.0
220
0.0
230
1.0
 40
0.5773502691896599
 41
3.14159265358985
 42
6.283185307179586
  0
ELLIPSE
  5
407
330
1F
100
AcDbEntity
  8
VISIBLE
100
AcDbEllipse
 10
8.966016142646554
 20
3.171665875759921
 30
0.0
 11
0.006750000000000255
 21
0.01169134295108964
 31
0.0
210
0.0
220
0.0
230
1.0
 40
0.5773502691896599
 41
0.2595949015196005
 42
3.14159265358985
  0
ELLIPSE
  5
408
330
1F
100
AcDbEntity
  8
VISIBLE
100
AcDbEllipse
 10
9.115351934020948
 20
3.555041749351274
 30
0.0
 11
0.006750000000000255
 21
0.01169134295108964
 31
0.0
210
0.0
220
0.0
230
1.0
 40
0.5773502691896599
 41
0.0
 42
0.2595949015196005
  0
ELLIPSE
  5
409
330
1F
100
AcDbEntity
  8
VISIBLE
100
AcDbEllipse
 10
9.115351934020948
 20
3.555041749351274
 30
0.0
 11
0.006750000000000255
 21
0.01169134295108964
 31
0.0
210
0.0
220
0.0
230
1.0
 40
0.5773502691896599
 41
3.14159265358985
 42
6.283185307179586
  0
ELLIPSE
  5
40A
330
1F
100
AcDbEntity
  8
VISIBLE
100
AcDbEllipse
 10
9.115351934020948
 20
3.555041749351274
 30
0.0
 11
0.006750000000000255
 21
0.01169134295108964
 31
0.0
210
0.0
220
0.0
230
1.0
 40
0.5773502691896599
 41
0.2595949015196005
 42
3.14159265358985
  0
ELLIPSE
  5
40B
330
1F
100
AcDbEntity
  8
VISIBLE
100
AcDbEllipse
 10
8.974069091404974
 20
3.365858332699507
 30
0.0
 11
0.09590357308262121
 21
0.166109861206496
 31
0.0
210
0.0
220
0.0
230
1.0
 40
0.5773502691896116
 41
0.2595949015196058
 42
3.102083617512343
  0
ELLIPSE
  5
40C
330
1F
100
AcDbEntity
  8
VISIBLE
100
AcDbEllipse
 10
8.974069091404974
 20
3.365858332699507
 30
0.0
 11
0.09590357308262121
 21
0.166109861206496
 31
0.0
210
0.0
220
0.0
230
1.0
 40
0.5773502691896116
 41
0.0395090360774584
 42
0.2595949015196058
  0
ELLIPSE
  5
40D
330
1F
100
AcDbEntity
  8
VISIBLE
100
AcDbEllipse
 10
8.817963572170282
 20
3.384003286441304
 30
0.0
 11
0.006750000000000256
 21
0.01169134295109053
 31
0.0
210
0.0
220
0.0
230
0.9999999999999999
 40
0.5773502691896107
 41
0.0
 42
0.2595949015196073
  0
ELLIPSE
  5
40E
330
1F
100
AcDbEntity
  8
VISIBLE
100
AcDbEllipse
 10
8.817963572170282
 20
3.384003286441304
 30
0.0
 11
0.006750000000000256
 21
0.01169134295109053
 31
0.0
210
0.0
220
0.0
230
0.9999999999999999
 40
0.5773502691896107
 41
3.141592653589735
 42
6.283185307179586
  0
ELLIPSE
  5
40F
330
1F
100
AcDbEntity
  8
VISIBLE
100
AcDbEllipse
 10
8.817963572170282
 20
3.384003286441304
 30
0.0
 11
0.006750000000000256
 21
0.01169134295109053
 31
0.0
210
0.0
220
0.0
230
0.9999999999999999
 40
0.5773502691896107
 41
0.2595949015196073
 42
3.141592653589735
  0
LINE
  5
410
330
1F
100
AcDbEntity
  8
VISIBLE
100
AcDbLine
 10
9.116926234262117
 20
3.613294162352201
 30
0.0
 11
9.109350090177976
 21
3.6176682511786
 31
0.0
  0
LINE
  5
411
330
1F
100
AcDbEntity
  8
VISIBLE
100
AcDbLine
 10
8.831211948547836
 20
3.118422503046806
 30
0.0
 11
8.823635804463693
 21
3.122796591873204
 31
0.0
  0
ELLIPSE
  5
412
330
1F
100
AcDbEntity
  8
VISIBLE
100
AcDbEllipse
 10
9.328935680306168
 20
2.351088113301409
 30
0.0
 11
0.0357142857142847
 21
8.881784197001252E-16
 31
0.0
210
0.0
220
0.0
230
1.0
 40
0.5773502691896284
 41
0.0
 42
0.7853981633974365
  0
ELLIPSE
  5
413
330
1F
100
AcDbEntity
  8
VISIBLE
100
AcDbEllipse
 10
9.328935680306168
 20
2.351088113301409
 30
0.0
 11
0.0357142857142847
 21
8.881784197001252E-16
 31
0.0
210
0.0
220
0.0
230
1.0
 40
0.5773502691896284
 41
5.497787143782122
 42
6.283185307179586
  0
ELLIPSE
  5
414
330
1F
100
AcDbEntity
  8
VISIBLE
100
AcDbEllipse
 10
9.281408003084985
 20
2.418011672345306
 30
0.0
 11
0.006321428571428811
 21
-0.010949035462132
 31
0.0
210
0.0
220
0.0
230
1.0
 40
0.577350269189644
 41
-2.356194490192398
 42
-0.7853981633974441
  0
LINE
  5
415
330
1F
100
AcDbEntity
  8
VISIBLE
100
AcDbLine
 10
7.779008123572492
 20
2.761871958317727
 30
0.0
 11
7.779008123572492
 21
2.807481958414674
 31
0.0
  0
ELLIPSE
  5
416
330
1F
100
AcDbEntity
  8
VISIBLE
100
AcDbEllipse
 10
7.811333004998163
 20
1.738394911091671
 30
0.0
 11
0.02678571428571441
 21
0.04639421805988087
 31
0.0
210
0.0
220
0.0
230
1.0
 40
0.5773502691896257
 41
0.0
 42
1.807743858175537
  0
ELLIPSE
  5
417
330
1F
100
AcDbEntity
  8
VISIBLE
100
AcDbEllipse
 10
7.811333004998163
 20
1.738394911091671
 30
0.0
 11
0.02678571428571441
 21
0.04639421805988087
 31
0.0
210
0.0
220
0.0
230
1.0
 40
0.5773502691896257
 41
-0.2369475313806363
 42
0.0
  0
LINE
  5
418
330
1F
100
AcDbEntity
  8
VISIBLE
100
AcDbLine
 10
9.281408003084985
 20
2.407688822715006
 30
0.0
 11
9.354189493919973
 21
2.365668409389404
 31
0.0
  0
ELLIPSE
  5
419
330
1F
100
AcDbEntity
  8
VISIBLE
100
AcDbEllipse
 10
7.817292905011021
 20
1.734953961214904
 30
0.0
 11
0.02678571428571441
 21
0.04639421805988109
 31
0.0
210
0.0
220
0.0
230
1.0
 40
0.5773502691896051
 41
0.1114822457514547
 42
1.807743858175523
  0
ELLIPSE
  5
41A
330
1F
100
AcDbEntity
  8
VISIBLE
100
AcDbEllipse
 10
7.817292905011021
 20
1.734953961214904
 30
0.0
 11
0.02678571428571441
 21
0.04639421805988109
 31
0.0
210
0.0
220
0.0
230
1.0
 40
0.5773502691896051
 41
2.904645122209155
 42
3.030110407838359
  0
LINE
  5
41B
330
1F
100
AcDbEntity
  8
VISIBLE
100
AcDbLine
 10
7.779008123572493
 20
1.742537132147511
 30
0.0
 11
7.784968023585351
 21
1.739096182270744
 31
0.0
  0
ELLIPSE
  5
41C
330
1F
100
AcDbEntity
  8
VISIBLE
100
AcDbEllipse
 10
9.281408003084984
 20
3.800573668593355
 30
0.0
 11
-0.006321428571428811
 21
0.010949035462132
 31
0.0
210
0.0
220
0.0
230
1.0
 40
0.577350269189644
 41
0.0
 42
0.7853981633973949
  0
ELLIPSE
  5
41D
330
1F
100
AcDbEntity
  8
VISIBLE
100
AcDbEllipse
 10
9.281408003084984
 20
3.800573668593355
 30
0.0
 11
-0.006321428571428811
 21
0.010949035462132
 31
0.0
210
0.0
220
0.0
230
1.0
 40
0.577350269189644
 41
-0.7853981633974441
 42
0.0
  0
LINE
  5
41E
330
1F
100
AcDbEntity
  8
VISIBLE
100
AcDbLine
 10
9.278428053078557
 20
2.41973214728369
 30
0.0
 11
9.278428053078555
 21
3.802294143531737
 31
0.0
  0
LINE
  5
41F
330
1F
100
AcDbEntity
  8
VISIBLE
100
AcDbLine
 10
7.843657886423832
 20
2.844807516399942
 30
0.0
 11
7.843657886423832
 21
2.799197516302994
 31
0.0
  0
LINE
  5
420
330
1F
100
AcDbEntity
  8
VISIBLE
100
AcDbLine
 10
7.843657886423834
 20
1.779862690132778
 30
0.0
 11
7.843657886423834
 21
1.734252690035831
 31
0.0
  0
ELLIPSE
  5
421
330
1F
100
AcDbEntity
  8
VISIBLE
100
AcDbEllipse
 10
7.671123831814317
 20
2.870875668838427
 30
0.0
 11
-0.00632142857142881
 21
0.01094903546213155
 31
0.0
210
0.0
220
0.0
230
0.9999999999999999
 40
0.5773502691896618
 41
0.0
 42
0.7853981633974093
  0
ELLIPSE
  5
422
330
1F
100
AcDbEntity
  8
VISIBLE
100
AcDbEllipse
 10
7.811333004998163
 20
1.738394911091671
 30
0.0
 11
0.02678571428571441
 21
0.04639421805988087
 31
0.0
210
0.0
220
0.0
230
1.0
 40
0.5773502691896257
 41
3.141592653589814
 42
4.949336511765333
  0
ELLIPSE
  5
423
330
1F
100
AcDbEntity
  8
VISIBLE
100
AcDbEllipse
 10
7.811333004998163
 20
1.738394911091671
 30
0.0
 11
0.02678571428571441
 21
0.04639421805988087
 31
0.0
210
0.0
220
0.0
230
1.0
 40
0.5773502691896257
 41
2.90464512220917
 42
3.141592653589814
  0
LINE
  5
424
330
1F
100
AcDbEntity
  8
VISIBLE
100
AcDbLine
 10
7.779008123572493
 20
1.696927132050563
 30
0.0
 11
7.784968023585351
 21
1.693486182173797
 31
0.0
  0
ELLIPSE
  5
425
330
1F
100
AcDbEntity
  8
VISIBLE
100
AcDbEllipse
 10
7.81729290501102
 20
2.799898787482067
 30
0.0
 11
0.02678571428571441
 21
0.0463942180598802
 31
0.0
210
0.0
220
0.0
230
1.0
 40
0.5773502691896338
 41
0.1114822457514633
 42
1.807743858175544
  0
LINE
  5
426
330
1F
100
AcDbEntity
  8
VISIBLE
100
AcDbLine
 10
9.272468153065697
 20
3.805735093408505
 30
0.0
 11
9.272468153065699
 21
2.423173097160456
 31
0.0
  0
LINE
  5
427
330
1F
100
AcDbEntity
  8
VISIBLE
100
AcDbLine
 10
7.76915913626311
 20
1.421390113546481
 30
0.0
 11
7.671123831814318
 21
1.477990822960077
 31
0.0
  0
LINE
  5
428
330
1F
100
AcDbEntity
  8
VISIBLE
100
AcDbLine
 10
9.354189493919973
 20
2.372550309142938
 30
0.0
 11
9.281408003084985
 21
2.41457072246854
 31
0.0
  0
LINE
  5
429
330
1F
100
AcDbEntity
  8
VISIBLE
100
AcDbLine
 10
7.779008123572492
 20
2.761871958317727
 30
0.0
 11
7.78496802358535
 21
2.75843100844096
 31
0.0
  0
ELLIPSE
  5
42A
330
1F
100
AcDbEntity
  8
VISIBLE
100
AcDbEllipse
 10
7.81729290501102
 20
2.799898787482067
 30
0.0
 11
0.02678571428571441
 21
0.0463942180598802
 31
0.0
210
0.0
220
0.0
230
1.0
 40
0.5773502691896338
 41
2.904645122209183
 42
3.030110407838391
  0
LINE
  5
42B
330
1F
100
AcDbEntity
  8
VISIBLE
100
AcDbLine
 10
7.779008123572492
 20
2.807481958414674
 30
0.0
 11
7.78496802358535
 21
2.804041008537907
 31
0.0
  0
LINE
  5
42C
330
1F
100
AcDbEntity
  8
VISIBLE
100
AcDbLine
 10
7.779008123572493
 20
1.696927132050563
 30
0.0
 11
7.779008123572493
 21
1.742537132147511
 31
0.0
  0
ELLIPSE
  5
42D
330
1F
100
AcDbEntity
  8
VISIBLE
100
AcDbEllipse
 10
7.811333004998162
 20
2.803339737358834
 30
0.0
 11
0.02678571428571352
 21
0.04639421805988109
 31
0.0
210
0.0
220
0.0
230
0.9999999999999999
 40
0.5773502691896265
 41
0.0
 42
1.807743858175518
  0
ELLIPSE
  5
42E
330
1F
100
AcDbEntity
  8
VISIBLE
100
AcDbEllipse
 10
7.811333004998162
 20
2.803339737358834
 30
0.0
 11
0.02678571428571352
 21
0.04639421805988109
 31
0.0
210
0.0
220
0.0
230
0.9999999999999999
 40
0.5773502691896265
 41
-0.2369475313806412
 42
0.0
  0
ELLIPSE
  5
42F
330
1F
100
AcDbEntity
  8
VISIBLE
100
AcDbEllipse
 10
7.671123831814318
 20
1.488313672590378
 30
0.0
 11
-0.00632142857142881
 21
0.01094903546213155
 31
0.0
210
0.0
220
0.0
230
0.9999999999999999
 40
0.5773502691895832
 41
0.7853981633975204
 42
2.356194490192276
  0
ELLIPSE
  5
430
330
1F
100
AcDbEntity
  8
VISIBLE
100
AcDbEllipse
 10
9.328935680306168
 20
2.357970013054943
 30
0.0
 11
0.0357142857142847
 21
8.881784197001252E-16
 31
0.0
210
0.0
220
0.0
230
1.0
 40
0.5773502691896408
 41
0.0
 42
0.7853981633974257
  0
ELLIPSE
  5
431
330
1F
100
AcDbEntity
  8
VISIBLE
100
AcDbEllipse
 10
9.281408003084987
 20
3.800573668593348
 30
0.0
 11
-0.002107142857145305
 21
0.003649678487384733
 31
0.0
210
0.0
220
0.0
230
0.9999999999999998
 40
0.5773502691891079
 41
0.0
 42
0.7853981633968428
  0
ELLIPSE
  5
432
330
1F
100
AcDbEntity
  8
VISIBLE
100
AcDbEllipse
 10
9.281408003084987
 20
3.800573668593348
 30
0.0
 11
-0.002107142857145305
 21
0.003649678487384733
 31
0.0
210
0.0
220
0.0
230
0.9999999999999998
 40
0.5773502691891079
 41
-0.785398163397456
 42
0.0
  0
LINE
  5
433
330
1F
100
AcDbEntity
  8
VISIBLE
100
AcDbLine
 10
9.281408003084984
 20
3.804014618470122
 30
0.0
 11
9.298782783708779
 21
3.793983284199863
 31
0.0
  0
LINE
  5
434
330
1F
100
AcDbEntity
  8
VISIBLE
100
AcDbLine
 10
9.315045925961082
 20
3.784593754642628
 30
0.0
 11
9.354189493919971
 21
3.76199420514452
 31
0.0
  0
ELLIPSE
  5
435
330
1F
100
AcDbEntity
  8
VISIBLE
100
AcDbEllipse
 10
9.328935680306166
 20
3.754295808810058
 30
0.0
 11
0.03571428571428648
 21
0.0
 31
0.0
210
0.0
220
0.0
230
1.0
 40
0.5773502691896245
 41
0.0
 42
0.7853981633974991
  0
ELLIPSE
  5
436
330
1F
100
AcDbEntity
  8
VISIBLE
100
AcDbEllipse
 10
7.671123831814316
 20
2.870875668838426
 30
0.0
 11
-0.01264285714285673
 21
4.440892098500626E-16
 31
0.0
210
0.0
220
0.0
230
1.0
 40
0.5773502691895945
 41
-0.7853981633975039
 42
0.0
  0
ELLIPSE
  5
437
330
1F
100
AcDbEntity
  8
VISIBLE
100
AcDbEllipse
 10
9.281408003084998
 20
2.418011672345311
 30
0.0
 11
-0.002107142857150635
 21
0.003649678487384733
 31
0.0
210
0.0
220
0.0
230
0.9999999999999998
 40
0.5773502691915164
 41
0.7853981633984675
 42
2.356194490193158
  0
LINE
  5
438
330
1F
100
AcDbEntity
  8
VISIBLE
100
AcDbLine
 10
7.784968023585351
 20
1.739096182270744
 30
0.0
 11
7.784968023585351
 21
1.693486182173796
 31
0.0
  0
LINE
  5
439
330
1F
100
AcDbEntity
  8
VISIBLE
100
AcDbLine
 10
7.78496802358535
 20
2.804041008537907
 30
0.0
 11
7.78496802358535
 21
2.75843100844096
 31
0.0
  0
LINE
  5
43A
330
1F
100
AcDbEntity
  8
VISIBLE
100
AcDbLine
 10
9.354189493919971
 20
3.768876104898053
 30
0.0
 11
9.281408003084984
 21
3.810896518223656
 31
0.0
  0
ELLIPSE
  5
43B
330
1F
100
AcDbEntity
  8
VISIBLE
100
AcDbEllipse
 10
7.811333004998162
 20
2.803339737358834
 30
0.0
 11
0.02678571428571352
 21
0.04639421805988109
 31
0.0
210
0.0
220
0.0
230
0.9999999999999999
 40
0.5773502691896265
 41
3.141592653589761
 42
4.94933651176532
  0
ELLIPSE
  5
43C
330
1F
100
AcDbEntity
  8
VISIBLE
100
AcDbEllipse
 10
7.811333004998162
 20
2.803339737358834
 30
0.0
 11
0.02678571428571352
 21
0.04639421805988109
 31
0.0
210
0.0
220
0.0
230
0.9999999999999999
 40
0.5773502691896265
 41
2.904645122209135
 42
3.141592653589761
  0
ELLIPSE
  5
43D
330
1F
100
AcDbEntity
  8
VISIBLE
100
AcDbEllipse
 10
9.328935680306166
 20
3.747413909056525
 30
0.0
 11
0.03571428571428648
 21
0.0
 31
0.0
210
0.0
220
0.0
230
1.0
 40
0.5773502691895996
 41
0.0
 42
0.7853981633974597
  0
ELLIPSE
  5
43E
330
1F
100
AcDbEntity
  8
VISIBLE
100
AcDbEllipse
 10
9.328935680306166
 20
3.747413909056525
 30
0.0
 11
0.03571428571428648
 21
0.0
 31
0.0
210
0.0
220
0.0
230
1.0
 40
0.5773502691895996
 41
5.920241205968943
 42
6.283185307179586
  0
LINE
  5
43F
330
1F
100
AcDbEntity
  8
VISIBLE
100
AcDbLine
 10
7.662183981795031
 20
1.483152247775227
 30
0.0
 11
7.671123831814318
 21
1.477990822960078
 31
0.0
  0
LINE
  5
440
330
1F
100
AcDbEntity
  8
VISIBLE
100
AcDbLine
 10
9.354189493919973
 20
2.336507817213414
 30
0.0
 11
7.76915913626311
 21
1.421390113546481
 31
0.0
  0
ELLIPSE
  5
441
330
1F
100
AcDbEntity
  8
VISIBLE
100
AcDbEllipse
 10
7.671123831814318
 20
1.488313672590378
 30
0.0
 11
-0.01264285714285673
 21
0.0
 31
0.0
210
0.0
220
0.0
230
1.0
 40
0.5773502691896648
 41
0.0
 42
0.7853981633974404
  0
ELLIPSE
  5
442
330
1F
100
AcDbEntity
  8
VISIBLE
100
AcDbEllipse
 10
7.671123831814318
 20
1.488313672590378
 30
0.0
 11
-0.01264285714285673
 21
0.0
 31
0.0
210
0.0
220
0.0
230
1.0
 40
0.5773502691896648
 41
-0.7853981633973477
 42
0.0
  0
LINE
  5
443
330
1F
100
AcDbEntity
  8
VISIBLE
100
AcDbLine
 10
7.65848097467146
 20
1.488313672590377
 30
0.0
 11
7.658480974671459
 21
2.870875668838427
 31
0.0
  0
LINE
  5
444
330
1F
100
AcDbEntity
  8
VISIBLE
100
AcDbLine
 10
7.664802403242888
 20
2.881824704300559
 30
0.0
 11
9.275086574513555
 21
3.811522704055486
 31
0.0
  0
LINE
  5
445
330
1F
100
AcDbEntity
  8
VISIBLE
100
AcDbLine
 10
9.364649966020453
 20
2.357970013054941
 30
0.0
 11
9.364649966020453
 21
2.351088113301408
 31
0.0
  0
LINE
  5
446
330
1F
100
AcDbEntity
  8
VISIBLE
100
AcDbLine
 10
9.364649966020451
 20
3.747413909056523
 30
0.0
 11
9.364649966020451
 21
3.754295808810058
 31
0.0
  0
LINE
  5
447
330
1F
100
AcDbEntity
  8
VISIBLE
100
AcDbLine
 10
9.28048463262735
 20
2.422494186017296
 30
0.0
 11
9.278428053078553
 21
2.421306819261189
 31
0.0
  0
LINE
  5
448
330
1F
100
AcDbEntity
  8
VISIBLE
100
AcDbLine
 10
9.309944812468583
 20
2.41780754820007
 30
0.0
 11
9.29287323446565
 21
2.407951268044585
 31
0.0
  0
LINE
  5
449
330
1F
100
AcDbEntity
  8
VISIBLE
100
AcDbLine
 10
9.278428053078553
 20
2.428305361383426
 30
0.0
 11
9.2850950598726
 21
2.432154559550657
 31
0.0
  0
ELLIPSE
  5
44A
330
1F
100
AcDbEntity
  8
VISIBLE
100
AcDbEllipse
 10
9.297519936170591
 20
2.424981053875364
 30
0.0
 11
0.01757142857142746
 21
0.0
 31
0.0
210
0.0
220
0.0
230
1.0
 40
0.5773502691896397
 41
3.389252140509755
 42
4.464729493464675
  0
ELLIPSE
  5
44B
330
1F
100
AcDbEntity
  8
VISIBLE
100
AcDbEllipse
 10
9.297519936170596
 20
3.78386464927651
 30
0.0
 11
0.01757142857142924
 21
0.0
 31
0.0
210
0.0
220
0.0
230
1.0
 40
0.577350269189632
 41
0.0
 42
2.356194490192336
  0
LINE
  5
44C
330
1F
100
AcDbEntity
  8
VISIBLE
100
AcDbLine
 10
9.285095059872605
 20
3.791038154951804
 30
0.0
 11
9.278428053078555
 21
3.787188956784571
 31
0.0
  0
LINE
  5
44D
330
1F
100
AcDbEntity
  8
VISIBLE
100
AcDbLine
 10
9.286812319198336
 20
2.411450539105704
 30
0.0
 11
9.293212554688708
 21
2.415145716788946
 31
0.0
  0
ELLIPSE
  5
44E
330
1F
100
AcDbEntity
  8
VISIBLE
100
AcDbEllipse
 10
9.297519936170591
 20
2.424981053875364
 30
0.0
 11
0.008928571428571175
 21
0.0
 31
0.0
210
0.0
220
0.0
230
1.0
 40
0.5773502691896533
 41
5.497787143782072
 42
6.283185307179586
  0
ELLIPSE
  5
44F
330
1F
100
AcDbEntity
  8
VISIBLE
100
AcDbEllipse
 10
9.297519936170591
 20
2.424981053875364
 30
0.0
 11
0.008928571428571175
 21
0.0
 31
0.0
210
0.0
220
0.0
230
1.0
 40
0.5773502691896533
 41
0.0
 42
3.141592653589793
  0
ELLIPSE
  5
450
330
1F
100
AcDbEntity
  8
VISIBLE
100
AcDbEllipse
 10
9.297519936170591
 20
2.424981053875364
 30
0.0
 11
0.008928571428571175
 21
0.0
 31
0.0
210
0.0
220
0.0
230
1.0
 40
0.5773502691896533
 41
3.141592653589793
 42
5.497787143782072
  0
ELLIPSE
  5
451
330
1F
100
AcDbEntity
  8
VISIBLE
100
AcDbEllipse
 10
9.297519936170591
 20
2.424981053875364
 30
0.0
 11
0.01757142857142746
 21
0.0
 31
0.0
210
0.0
220
0.0
230
1.0
 40
0.5773502691896397
 41
0.0
 42
2.356194490192415
  0
ELLIPSE
  5
452
330
1F
100
AcDbEntity
  8
VISIBLE
100
AcDbEllipse
 10
9.297519936170591
 20
2.424981053875364
 30
0.0
 11
0.01757142857142746
 21
0.0
 31
0.0
210
0.0
220
0.0
230
1.0
 40
0.5773502691896397
 41
5.497787143782136
 42
6.283185307179586
  0
LINE
  5
453
330
1F
100
AcDbEntity
  8
VISIBLE
100
AcDbLine
 10
9.315091364742026
 20
3.783864649276512
 30
0.0
 11
9.315091364742022
 21
2.424981053875366
 31
0.0
  0
ELLIPSE
  5
454
330
1F
100
AcDbEntity
  8
VISIBLE
100
AcDbEllipse
 10
8.948310201518888
 20
3.001642536421386
 30
0.0
 11
-0.03791885536996631
 21
-0.06567738406563617
 31
0.0
210
0.0
220
0.0
230
1.0
 40
0.5773502691896117
 41
-3.141592653589758
 42
-0.785398163397466
  0
ELLIPSE
  5
455
330
1F
100
AcDbEntity
  8
VISIBLE
100
AcDbEllipse
 10
8.948310201518888
 20
3.001642536421386
 30
0.0
 11
-0.03791885536996631
 21
-0.06567738406563617
 31
0.0
210
0.0
220
0.0
230
1.0
 40
0.5773502691896117
 41
0.0
 42
3.141592653589828
  0
ELLIPSE
  5
456
330
1F
100
AcDbEntity
  8
VISIBLE
100
AcDbEllipse
 10
8.948310201518888
 20
3.001642536421386
 30
0.0
 11
-0.03791885536996631
 21
-0.06567738406563617
 31
0.0
210
0.0
220
0.0
230
1.0
 40
0.5773502691896117
 41
-0.7853981633974663
 42
0.0
  0
ELLIPSE
  5
457
330
1F
100
AcDbEntity
  8
VISIBLE
100
AcDbEllipse
 10
8.999322905018776
 20
2.972190338323636
 30
0.0
 11
-0.04167857142857301
 21
-0.07218940330117407
 31
0.0
210
0.0
220
0.0
230
1.0
 40
0.5773502691895998
 41
0.7853981633974907
 42
3.141592653589862
  0
ELLIPSE
  5
458
330
1F
100
AcDbEntity
  8
VISIBLE
100
AcDbEllipse
 10
8.999322905018776
 20
2.972190338323636
 30
0.0
 11
-0.04167857142857301
 21
-0.07218940330117407
 31
0.0
210
0.0
220
0.0
230
1.0
 40
0.5773502691895998
 41
0.0
 42
0.7853981633974907
  0
ELLIPSE
  5
459
330
1F
100
AcDbEntity
  8
VISIBLE
100
AcDbEllipse
 10
8.948310201518888
 20
3.001642536421386
 30
0.0
 11
-0.04167857142857301
 21
-0.07218940330117407
 31
0.0
210
0.0
220
0.0
230
1.0
 40
0.5773502691896234
 41
0.7853981633974702
 42
3.141592653589829
  0
ELLIPSE
  5
45A
330
1F
100
AcDbEntity
  8
VISIBLE
100
AcDbEllipse
 10
8.948310201518888
 20
3.001642536421386
 30
0.0
 11
-0.04167857142857301
 21
-0.07218940330117407
 31
0.0
210
0.0
220
0.0
230
1.0
 40
0.5773502691896234
 41
-3.141592653589758
 42
0.0
  0
ELLIPSE
  5
45B
330
1F
100
AcDbEntity
  8
VISIBLE
100
AcDbEllipse
 10
8.948310201518888
 20
3.001642536421386
 30
0.0
 11
-0.04167857142857301
 21
-0.07218940330117407
 31
0.0
210
0.0
220
0.0
230
1.0
 40
0.5773502691896234
 41
0.0
 42
0.7853981633974702
  0
ELLIPSE
  5
45C
330
1F
100
AcDbEntity
  8
VISIBLE
100
AcDbEllipse
 10
8.950330506607992
 20
3.000476112734346
 30
0.0
 11
-0.03791885536996631
 21
-0.06567738406563617
 31
0.0
210
0.0
220
0.0
230
1.0
 40
0.5773502691896117
 41
-0.7853981633974663
 42
-0.0266430000052439
  0
ELLIPSE
  5
45D
330
1F
100
AcDbEntity
  8
VISIBLE
100
AcDbEllipse
 10
8.950330506607992
 20
3.000476112734346
 30
0.0
 11
-0.03791885536996631
 21
-0.06567738406563617
 31
0.0
210
0.0
220
0.0
230
1.0
 40
0.5773502691896117
 41
-3.114949653584511
 42
-0.7853981633974665
  0
LINE
  5
45E
330
1F
100
AcDbEntity
  8
VISIBLE
100
AcDbLine
 10
8.957644333590206
 20
2.900000935022463
 30
0.0
 11
8.90663163009032
 21
2.929453133120213
 31
0.0
  0
LINE
  5
45F
330
1F
100
AcDbEntity
  8
VISIBLE
100
AcDbLine
 10
9.041001476447349
 20
3.044379741624812
 30
0.0
 11
8.989988772947461
 21
3.073831939722562
 31
0.0
  0
LINE
  5
460
330
1F
100
AcDbEntity
  8
TANGENT_EDGES
100
AcDbLine
 10
10.16675620075778
 20
1.91047156552219
 30
0.0
 11
10.16675620075778
 21
1.907030615645424
 31
0.0
  0
LINE
  5
461
330
1F
100
AcDbEntity
  8
TANGENT_EDGES
100
AcDbLine
 10
10.05023510476117
 20
1.972555233658976
 30
0.0
 11
10.04427520474831
 21
1.975996183535743
 31
0.0
  0
LINE
  5
462
330
1F
100
AcDbEntity
  8
TANGENT_EDGES
100
AcDbLine
 10
10.16675620075778
 20
1.907030615645423
 30
0.0
 11
10.16377625075135
 21
1.90531014070704
 31
0.0
  0
LINE
  5
463
330
1F
100
AcDbEntity
  8
TANGENT_EDGES
100
AcDbLine
 10
10.17271610077064
 20
3.272212898956591
 30
0.0
 11
10.17271610077064
 21
1.913912515398957
 31
0.0
  0
LINE
  5
464
330
1F
100
AcDbEntity
  8
TANGENT_EDGES
100
AcDbLine
 10
9.312217655693829
 20
2.410721524301306
 30
0.0
 11
9.312217655693829
 21
2.419421313388114
 31
0.0
  0
LINE
  5
465
330
1F
100
AcDbEntity
  8
TANGENT_EDGES
100
AcDbLine
 10
10.16377625075135
 20
1.898428240953507
 30
0.0
 11
8.580463152420199
 21
0.9843019974205689
 31
0.0
  0
ELLIPSE
  5
466
330
1F
100
AcDbEntity
  8
TANGENT_EDGES
100
AcDbEllipse
 10
8.966016142646557
 20
3.171665875759919
 30
0.0
 11
-0.008785714285714619
 21
-0.0152173035236407
 31
0.0
210
0.0
220
0.0
230
0.9999999999999999
 40
0.5773502691896479
 41
0.0
 42
6.283185307179586
  0
ELLIPSE
  5
467
330
1F
100
AcDbEntity
  8
TANGENT_EDGES
100
AcDbEllipse
 10
9.115351934020952
 20
3.555041749351271
 30
0.0
 11
-0.008785714285714619
 21
-0.0152173035236407
 31
0.0
210
0.0
220
0.0
230
0.9999999999999999
 40
0.5773502691895477
 41
0.0
 42
6.283185307179586
  0
ELLIPSE
  5
468
330
1F
100
AcDbEntity
  8
TANGENT_EDGES
100
AcDbEllipse
 10
8.817963572170285
 20
3.384003286441303
 30
0.0
 11
-0.008785714285714619
 21
-0.0152173035236407
 31
0.0
210
0.0
220
0.0
230
0.9999999999999999
 40
0.5773502691896479
 41
0.0
 42
6.283185307179586
  0
LINE
  5
469
330
1F
100
AcDbEntity
  8
TANGENT_EDGES
100
AcDbLine
 10
7.662183981795029
 20
2.876037093653577
 30
0.0
 11
9.272468153065697
 21
3.805735093408505
 31
0.0
  0
LINE
  5
46A
330
1F
100
AcDbEntity
  8
TANGENT_EDGES
100
AcDbLine
 10
7.66218398179503
 20
1.493475097405528
 30
0.0
 11
7.662183981795029
 21
2.876037093653577
 31
0.0
  0
LINE
  5
46B
330
1F
100
AcDbEntity
  8
TANGENT_EDGES
100
AcDbLine
 10
9.278428053078555
 20
3.802294143531738
 30
0.0
 11
9.281408003084984
 21
3.804014618470122
 31
0.0
  0
LINE
  5
46C
330
1F
100
AcDbEntity
  8
TANGENT_EDGES
100
AcDbLine
 10
7.671123831814318
 20
1.477990822960078
 30
0.0
 11
9.281408003084985
 21
2.407688822715006
 31
0.0
  0
LINE
  5
46D
330
1F
100
AcDbEntity
  8
TANGENT_EDGES
100
AcDbLine
 10
9.354189493919973
 20
2.372550309142938
 30
0.0
 11
9.354189493919973
 21
2.365668409389404
 31
0.0
  0
LINE
  5
46E
330
1F
100
AcDbEntity
  8
TANGENT_EDGES
100
AcDbLine
 10
9.272468153065699
 20
2.423173097160456
 30
0.0
 11
7.66218398179503
 21
1.493475097405528
 31
0.0
  0
LINE
  5
46F
330
1F
100
AcDbEntity
  8
TANGENT_EDGES
100
AcDbLine
 10
9.354189493919971
 20
3.768876104898053
 30
0.0
 11
9.354189493919971
 21
3.76199420514452
 31
0.0
  0
LINE
  5
470
330
1F
100
AcDbEntity
  8
TANGENT_EDGES
100
AcDbLine
 10
9.285095059872605
 20
3.791038154951804
 30
0.0
 11
9.285095059872598
 21
2.432154559550657
 31
0.0
  0
ENDSEC
  0
SECTION
  2
OBJECTS
  0
DICTIONARY
  5
C
330
0
100
AcDbDictionary
  3
ACAD_GROUP
350
D
  3
ACAD_LAYOUT
350
1A
  3
ACAD_MLEADERSTYLE
350
494
  3
ACAD_MLINESTYLE
350
17
  3
ACAD_PLOTSETTINGS
350
19
  3
ACAD_SCALELIST
350
3B
  3
ACAD_TABLESTYLE
350
493
  3
ACAD_VISUALSTYLE
350
2A
  3
ACDBHEADERROUNDTRIPXREC
350
471
  3
ACDBVARIABLEDICTIONARY
350
491
  0
DICTIONARY
  5
D
102
{ACAD_REACTORS
330
C
102
}
330
C
100
AcDbDictionary
  0
DICTIONARY
  5
1A
102
{ACAD_REACTORS
330
C
102
}
330
C
100
AcDbDictionary
  0
DICTIONARY
  5
494
102
{ACAD_REACTORS
330
C
102
}
330
C
100
AcDbDictionary
  0
DICTIONARY
  5
17
102
{ACAD_REACTORS
330
C
102
}
330
C
100
AcDbDictionary
  3
STANDARD
350
18
  0
DICTIONARY
  5
19
102
{ACAD_REACTORS
330
C
102
}
330
C
100
AcDbDictionary
  0
DICTIONARY
  5
3B
102
{ACAD_REACTORS
330
C
102
}
330
C
100
AcDbDictionary
  3
A0
350
3C
  3
A1
350
3D
  3
A2
350
3E
  3
A3
350
3F
  3
A4
350
40
  3
A5
350
41
  3
A6
350
42
  3
A7
350
43
  3
A8
350
44
  3
A9
350
45
  3
B0
350
46
  3
B1
350
47
  3
B2
350
48
  3
B3
350
49
  3
B4
350
4A
  3
B5
350
4B
  3
B6
350
4C
  3
B7
350
4D
  3
B8
350
4E
  3
B9
350
4F
  3
C0
350
50
  3
C1
350
51
  3
C2
350
52
  3
C3
350
53
  3
C4
350
54
  3
C5
350
55
  3
C6
350
56
  3
C7
350
57
  3
C8
350
58
  3
C9
350
59
  3
D0
350
5A
  3
D1
350
5B
  3
D2
350
5C
  0
DICTIONARY
  5
493
102
{ACAD_REACTORS
330
C
102
}
330
C
100
AcDbDictionary
  0
DICTIONARY
  5
2A
102
{ACAD_REACTORS
330
C
102
}
330
C
100
AcDbDictionary
  3
2DWIREFRAME
350
2F
  3
3D_HIDDEN
350
31
  3
3DWIREFRAME
350
30
  3
BASIC
350
32
  3
BRIGHTEN
350
36
  3
COLORCHANGE
350
3A
  3
CONCEPTUAL
350
34
  3
DIM
350
35
  3
FACEPATTERN
350
39
  3
FLAT
350
2B
  3
FLATWITHEDGES
350
2C
  3
GOURAUD
350
2D
  3
GOURAUDWITHEDGES
350
2E
  3
LINEPATTERN
350
38
  3
REALISTIC
350
33
  3
THICKEN
350
37
  0
DICTIONARY
  5
471
102
{ACAD_REACTORS
330
C
102
}
330
C
100
AcDbDictionary
  3
CEPSNTYPE
350
47A
  3
DIMSTYLEDATA
350
490
  3
FINGERPRINTGUID
350
47B
  3
HYPERLINKBASE
350
474
  3
INSUNITS
350
479
  3
LAYOUTDICT
350
476
  3
LWETCUNION
350
478
  3
PLOTSETDICT
350
477
  3
PSVPSCALE
350
47D
  3
PUCSBASE
350
480
  3
PUCSORGBACK
350
486
  3
PUCSORGBOTTOM
350
482
  3
PUCSORGFRONT
350
485
  3
PUCSORGLEFT
350
483
  3
PUCSORGRIGHT
350
484
  3
PUCSORGTOP
350
481
  3
PUCSORTHOREF
350
47E
  3
PUCSORTHOVIEW
350
47F
  3
STYLESHEET
350
475
  3
TSTACKALIGN
350
472
  3
TSTACKSIZE
350
473
  3
UCSBASE
350
489
  3
UCSORGBACK
350
48F
  3
UCSORGBOTTOM
350
48B
  3
UCSORGFRONT
350
48E
  3
UCSORGLEFT
350
48C
  3
UCSORGRIGHT
350
48D
  3
UCSORGTOP
350
48A
  3
UCSORTHOREF
350
487
  3
UCSORTHOVIEW
350
488
  3
VERSIONGUID
350
47C
  0
DICTIONARY
  5
491
102
{ACAD_REACTORS
330
C
102
}
330
C
100
AcDbDictionary
  3
CANNOSCALE
350
492
  0
MLINESTYLE
  5
18
102
{ACAD_REACTORS
330
17
102
}
330
17
100
AcDbMlineStyle
  2
Standard
 70
     0
  3

 62
   256
 51
90.0
 52
90.0
 71
     2
 49
0.5
 62
   256
  6
BYLAYER
 49
-0.5
 62
   256
  6
BYLAYER
  0
SCALE
  5
3C
102
{ACAD_REACTORS
330
3B
102
}
330
3B
100
AcDbScale
 70
     0
300
1:1
140
1.0
141
1.0
290
     1
  0
SCALE
  5
3D
102
{ACAD_REACTORS
330
3B
102
}
330
3B
100
AcDbScale
 70
     0
300
1:2
140
1.0
141
2.0
290
     0
  0
SCALE
  5
3E
102
{ACAD_REACTORS
330
3B
102
}
330
3B
100
AcDbScale
 70
     0
300
1:4
140
1.0
141
4.0
290
     0
  0
SCALE
  5
3F
102
{ACAD_REACTORS
330
3B
102
}
330
3B
100
AcDbScale
 70
     0
300
1:5
140
1.0
141
5.0
290
     0
  0
SCALE
  5
40
102
{ACAD_REACTORS
330
3B
102
}
330
3B
100
AcDbScale
 70
     0
300
1:8
140
1.0
141
8.0
290
     0
  0
SCALE
  5
41
102
{ACAD_REACTORS
330
3B
102
}
330
3B
100
AcDbScale
 70
     0
300
1:10
140
1.0
141
10.0
290
     0
  0
SCALE
  5
42
102
{ACAD_REACTORS
330
3B
102
}
330
3B
100
AcDbScale
 70
     0
300
1:16
140
1.0
141
16.0
290
     0
  0
SCALE
  5
43
102
{ACAD_REACTORS
330
3B
102
}
330
3B
100
AcDbScale
 70
     0
300
1:20
140
1.0
141
20.0
290
     0
  0
SCALE
  5
44
102
{ACAD_REACTORS
330
3B
102
}
330
3B
100
AcDbScale
 70
     0
300
1:30
140
1.0
141
30.0
290
     0
  0
SCALE
  5
45
102
{ACAD_REACTORS
330
3B
102
}
330
3B
100
AcDbScale
 70
     0
300
1:40
140
1.0
141
40.0
290
     0
  0
SCALE
  5
46
102
{ACAD_REACTORS
330
3B
102
}
330
3B
100
AcDbScale
 70
     0
300
1:50
140
1.0
141
50.0
290
     0
  0
SCALE
  5
47
102
{ACAD_REACTORS
330
3B
102
}
330
3B
100
AcDbScale
 70
     0
300
1:100
140
1.0
141
100.0
290
     0
  0
SCALE
  5
48
102
{ACAD_REACTORS
330
3B
102
}
330
3B
100
AcDbScale
 70
     0
300
2:1
140
2.0
141
1.0
290
     0
  0
SCALE
  5
49
102
{ACAD_REACTORS
330
3B
102
}
330
3B
100
AcDbScale
 70
     0
300
4:1
140
4.0
141
1.0
290
     0
  0
SCALE
  5
4A
102
{ACAD_REACTORS
330
3B
102
}
330
3B
100
AcDbScale
 70
     0
300
8:1
140
8.0
141
1.0
290
     0
  0
SCALE
  5
4B
102
{ACAD_REACTORS
330
3B
102
}
330
3B
100
AcDbScale
 70
     0
300
10:1
140
10.0
141
1.0
290
     0
  0
SCALE
  5
4C
102
{ACAD_REACTORS
330
3B
102
}
330
3B
100
AcDbScale
 70
     0
300
100:1
140
100.0
141
1.0
290
     0
  0
SCALE
  5
4D
102
{ACAD_REACTORS
330
3B
102
}
330
3B
100
AcDbScale
 70
     0
300
1/128" = 1'-0"
140
0.0078125
141
12.0
290
     0
  0
SCALE
  5
4E
102
{ACAD_REACTORS
330
3B
102
}
330
3B
100
AcDbScale
 70
     0
300
1/64" = 1'-0"
140
0.015625
141
12.0
290
     0
  0
SCALE
  5
4F
102
{ACAD_REACTORS
330
3B
102
}
330
3B
100
AcDbScale
 70
     0
300
1/32" = 1'-0"
140
0.03125
141
12.0
290
     0
  0
SCALE
  5
50
102
{ACAD_REACTORS
330
3B
102
}
330
3B
100
AcDbScale
 70
     0
300
1/16" = 1'-0"
140
0.0625
141
12.0
290
     0
  0
SCALE
  5
51
102
{ACAD_REACTORS
330
3B
102
}
330
3B
100
AcDbScale
 70
     0
300
3/32" = 1'-0"
140
0.09375
141
12.0
290
     0
  0
SCALE
  5
52
102
{ACAD_REACTORS
330
3B
102
}
330
3B
100
AcDbScale
 70
     0
300
1/8" = 1'-0"
140
0.125
141
12.0
290
     0
  0
SCALE
  5
53
102
{ACAD_REACTORS
330
3B
102
}
330
3B
100
AcDbScale
 70
     0
300
3/16" = 1'-0"
140
0.1875
141
12.0
290
     0
  0
SCALE
  5
54
102
{ACAD_REACTORS
330
3B
102
}
330
3B
100
AcDbScale
 70
     0
300
1/4" = 1'-0"
140
0.25
141
12.0
290
     0
  0
SCALE
  5
55
102
{ACAD_REACTORS
330
3B
102
}
330
3B
100
AcDbScale
 70
     0
300
3/8" = 1'-0"
140
0.375
141
12.0
290
     0
  0
SCALE
  5
56
102
{ACAD_REACTORS
330
3B
102
}
330
3B
100
AcDbScale
 70
     0
300
1/2" = 1'-0"
140
0.5
141
12.0
290
     0
  0
SCALE
  5
57
102
{ACAD_REACTORS
330
3B
102
}
330
3B
100
AcDbScale
 70
     0
300
3/4" = 1'-0"
140
0.75
141
12.0
290
     0
  0
SCALE
  5
58
102
{ACAD_REACTORS
330
3B
102
}
330
3B
100
AcDbScale
 70
     0
300
1" = 1'-0"
140
1.0
141
12.0
290
     0
  0
SCALE
  5
59
102
{ACAD_REACTORS
330
3B
102
}
330
3B
100
AcDbScale
 70
     0
300
1-1/2" = 1'-0"
140
1.5
141
12.0
290
     0
  0
SCALE
  5
5A
102
{ACAD_REACTORS
330
3B
102
}
330
3B
100
AcDbScale
 70
     0
300
3" = 1'-0"
140
3.0
141
12.0
290
     0
  0
SCALE
  5
5B
102
{ACAD_REACTORS
330
3B
102
}
330
3B
100
AcDbScale
 70
     0
300
6" = 1'-0"
140
6.0
141
12.0
290
     0
  0
SCALE
  5
5C
102
{ACAD_REACTORS
330
3B
102
}
330
3B
100
AcDbScale
 70
     0
300
1'-0" = 1'-0"
140
12.0
141
12.0
290
     0
  0
VISUALSTYLE
  5
2F
102
{ACAD_REACTORS
330
2A
102
}
330
2A
100
AcDbVisualStyle
  2
2dWireframe
 70
     4
 71
     0
 72
     2
 73
     0
 90
        0
 40
-0.6
 41
-30.0
 62
     5
 63
     7
 74
     1
 91
        4
 64
     7
 65
   257
 75
     1
175
     1
 42
1.0
 92
        0
 66
   257
 43
1.0
 76
     1
 77
     6
 78
     2
 67
     7
 79
     5
170
     0
171
     0
290
     0
174
     0
 93
        1
 44
0.0
173
     0
291
     0
 45
0.0
1001
ACAD
1000
AcDbSavedByObjectVersion
1070
     0
  0
VISUALSTYLE
  5
31
102
{ACAD_REACTORS
330
2A
102
}
330
2A
100
AcDbVisualStyle
  2
3D Hidden
 70
     6
 71
     1
 72
     2
 73
     2
 90
        0
 40
-0.6
 41
-30.0
 62
     5
 63
     7
 74
     2
 91
        2
 64
     7
 65
   257
 75
     2
175
     1
 42
40.0
 92
        0
 66
   257
 43
1.0
 76
     1
 77
     6
 78
     2
 67
     7
 79
     3
170
     0
171
     0
290
     0
174
     0
 93
        1
 44
0.0
173
     0
291
     0
 45
0.0
1001
ACAD
1000
AcDbSavedByObjectVersion
1070
     0
  0
VISUALSTYLE
  5
30
102
{ACAD_REACTORS
330
2A
102
}
330
2A
100
AcDbVisualStyle
  2
3dWireframe
 70
     5
 71
     0
 72
     2
 73
     0
 90
        0
 40
-0.6
 41
-30.0
 62
     5
 63
     7
 74
     1
 91
        4
 64
     7
 65
   257
 75
     1
175
     1
 42
1.0
 92
        0
 66
   257
 43
1.0
 76
     1
 77
     6
 78
     2
 67
     7
 79
     5
170
     0
171
     0
290
     0
174
     0
 93
        1
 44
0.0
173
     0
291
     0
 45
0.0
1001
ACAD
1000
AcDbSavedByObjectVersion
1070
     0
  0
VISUALSTYLE
  5
32
102
{ACAD_REACTORS
330
2A
102
}
330
2A
100
AcDbVisualStyle
  2
Basic
 70
     7
 71
     1
 72
     0
 73
     1
 90
        0
 40
-0.6
 41
-30.0
 62
     5
 63
     7
 74
     0
 91
        4
 64
     7
 65
   257
 75
     1
175
     1
 42
1.0
 92
        8
 66
     7
 43
1.0
 76
     1
 77
     6
 78
     2
 67
     7
 79
     5
170
     0
171
     0
290
     0
174
     0
 93
        1
 44
0.0
173
     0
291
     1
 45
0.0
1001
ACAD
1000
AcDbSavedByObjectVersion
1070
     0
  0
VISUALSTYLE
  5
36
102
{ACAD_REACTORS
330
2A
102
}
330
2A
100
AcDbVisualStyle
  2
Brighten
 70
    12
 71
     2
 72
     2
 73
     0
 90
        0
 40
-0.6
 41
-30.0
 62
     5
 63
     7
 74
     1
 91
        4
 64
     7
 65
   257
 75
     1
175
     1
 42
1.0
 92
        8
 66
     7
 43
1.0
 76
     1
 77
     6
 78
     2
 67
     7
 79
     5
170
     0
171
     0
290
     0
174
     0
 93
        1
 44
50.0
173
     0
291
     1
 45
0.0
1001
ACAD
1000
AcDbSavedByObjectVersion
1070
     0
  0
VISUALSTYLE
  5
3A
102
{ACAD_REACTORS
330
2A
102
}
330
2A
100
AcDbVisualStyle
  2
ColorChange
 70
    16
 71
     2
 72
     2
 73
     3
 90
        0
 40
-0.6
 41
-30.0
 62
     5
 63
     8
 74
     1
 91
        4
 64
     7
 65
   257
 75
     1
175
     1
 42
1.0
 92
        8
 66
     8
 43
1.0
 76
     1
 77
     6
 78
     2
 67
     7
 79
     5
170
     0
171
     0
290
     0
174
     0
 93
        1
 44
0.0
173
     0
291
     1
 45
0.0
1001
ACAD
1000
AcDbSavedByObjectVersion
1070
     0
  0
VISUALSTYLE
  5
34
102
{ACAD_REACTORS
330
2A
102
}
330
2A
100
AcDbVisualStyle
  2
Conceptual
 70
     9
 71
     3
 72
     2
 73
     0
 90
        0
 40
-0.6
 41
-30.0
 62
     5
 63
     7
 74
     2
 91
        2
 64
     7
 65
   257
 75
     1
175
     1
 42
40.0
 92
        8
 66
     7
 43
1.0
 76
     1
 77
     6
 78
     2
 67
     7
 79
     3
170
     0
171
     0
290
     0
174
     0
 93
        1
 44
0.0
173
     0
291
     0
 45
0.0
1001
ACAD
1000
AcDbSavedByObjectVersion
1070
     0
  0
VISUALSTYLE
  5
35
102
{ACAD_REACTORS
330
2A
102
}
330
2A
100
AcDbVisualStyle
  2
Dim
 70
    11
 71
     2
 72
     2
 73
     0
 90
        0
 40
-0.6
 41
-30.0
 62
     5
 63
     7
 74
     1
 91
        4
 64
     7
 65
   257
 75
     1
175
     1
 42
1.0
 92
        8
 66
     7
 43
1.0
 76
     1
 77
     6
 78
     2
 67
     7
 79
     5
170
     0
171
     0
290
     0
174
     0
 93
        1
 44
-50.0
173
     0
291
     1
 45
0.0
1001
ACAD
1000
AcDbSavedByObjectVersion
1070
     0
  0
VISUALSTYLE
  5
39
102
{ACAD_REACTORS
330
2A
102
}
330
2A
100
AcDbVisualStyle
  2
Facepattern
 70
    15
 71
     2
 72
     2
 73
     0
 90
        0
 40
-0.6
 41
-30.0
 62
     5
 63
     7
 74
     1
 91
        4
 64
     7
 65
   257
 75
     1
175
     1
 42
1.0
 92
        8
 66
     7
 43
1.0
 76
     1
 77
     6
 78
     2
 67
     7
 79
     5
170
     0
171
     0
290
     0
174
     0
 93
        1
 44
0.0
173
     0
291
     1
 45
0.0
1001
ACAD
1000
AcDbSavedByObjectVersion
1070
     0
  0
VISUALSTYLE
  5
2B
102
{ACAD_REACTORS
330
2A
102
}
330
2A
100
AcDbVisualStyle
  2
Flat
 70
     0
 71
     2
 72
     1
 73
     1
 90
        2
 40
-0.6
 41
30.0
 62
     5
 63
     7
 74
     0
 91
        4
 64
     7
 65
   257
 75
     1
175
     1
 42
1.0
 92
        8
 66
     7
 43
1.0
 76
     1
 77
     6
 78
     2
 67
     7
 79
     5
170
     0
171
     0
290
     0
174
     0
 93
       13
 44
0.0
173
     0
291
     1
 45
0.0
1001
ACAD
1000
AcDbSavedByObjectVersion
1070
     0
  0
VISUALSTYLE
  5
2C
102
{ACAD_REACTORS
330
2A
102
}
330
2A
100
AcDbVisualStyle
  2
FlatWithEdges
 70
     1
 71
     2
 72
     1
 73
     1
 90
        2
 40
-0.6
 41
30.0
 62
     5
 63
     7
 74
     1
 91
        4
 64
     7
 65
   257
 75
     1
175
     1
 42
1.0
 92
        0
 66
   257
 43
1.0
 76
     1
 77
     6
 78
     2
 67
     7
 79
     5
170
     0
171
     0
290
     0
174
     0
 93
       13
 44
0.0
173
     0
291
     1
 45
0.0
1001
ACAD
1000
AcDbSavedByObjectVersion
1070
     0
  0
VISUALSTYLE
  5
2D
102
{ACAD_REACTORS
330
2A
102
}
330
2A
100
AcDbVisualStyle
  2
Gouraud
 70
     2
 71
     2
 72
     2
 73
     1
 90
        2
 40
-0.6
 41
30.0
 62
     5
 63
     7
 74
     0
 91
        4
 64
     7
 65
   257
 75
     1
175
     1
 42
1.0
 92
        0
 66
     7
 43
1.0
 76
     1
 77
     6
 78
     2
 67
     7
 79
     5
170
     0
171
     0
290
     0
174
     0
 93
       13
 44
0.0
173
     0
291
     1
 45
0.0
1001
ACAD
1000
AcDbSavedByObjectVersion
1070
     0
  0
VISUALSTYLE
  5
2E
102
{ACAD_REACTORS
330
2A
102
}
330
2A
100
AcDbVisualStyle
  2
GouraudWithEdges
 70
     3
 71
     2
 72
     2
 73
     1
 90
        2
 40
-0.6
 41
30.0
 62
     5
 63
     7
 74
     1
 91
        4
 64
     7
 65
   257
 75
     1
175
     1
 42
1.0
 92
        0
 66
   257
 43
1.0
 76
     1
 77
     6
 78
     2
 67
     7
 79
     5
170
     0
171
     0
290
     0
174
     0
 93
       13
 44
0.0
173
     0
291
     1
 45
0.0
1001
ACAD
1000
AcDbSavedByObjectVersion
1070
     0
  0
VISUALSTYLE
  5
38
102
{ACAD_REACTORS
330
2A
102
}
330
2A
100
AcDbVisualStyle
  2
Linepattern
 70
    14
 71
     2
 72
     2
 73
     0
 90
        0
 40
-0.6
 41
-30.0
 62
     5
 63
     7
 74
     1
 91
        4
 64
     7
 65
   257
 75
     7
175
     7
 42
1.0
 92
        8
 66
     7
 43
1.0
 76
     1
 77
     6
 78
     2
 67
     7
 79
     5
170
     0
171
     0
290
     0
174
     0
 93
        1
 44
0.0
173
     0
291
     1
 45
0.0
1001
ACAD
1000
AcDbSavedByObjectVersion
1070
     0
  0
VISUALSTYLE
  5
33
102
{ACAD_REACTORS
330
2A
102
}
330
2A
100
AcDbVisualStyle
  2
Realistic
 70
     8
 71
     2
 72
     2
 73
     0
 90
        0
 40
-0.6
 41
-30.0
 62
     5
 63
     7
 74
     1
 91
        0
 64
     7
 65
   257
 75
     1
175
     1
 42
1.0
 92
        8
 66
     8
 43
1.0
 76
     1
 77
     6
 78
     2
 67
     7
 79
     5
170
     0
171
     0
290
     0
174
     0
 93
       13
 44
0.0
173
     0
291
     0
 45
0.0
1001
ACAD
1000
AcDbSavedByObjectVersion
1070
     0
  0
VISUALSTYLE
  5
37
102
{ACAD_REACTORS
330
2A
102
}
330
2A
100
AcDbVisualStyle
  2
Thicken
 70
    13
 71
     2
 72
     2
 73
     0
 90
        0
 40
-0.6
 41
-30.0
 62
     5
 63
     7
 74
     1
 91
        4
 64
     7
 65
   257
 75
     1
175
     1
 42
1.0
 92
       12
 66
     7
 43
1.0
 76
     1
 77
     6
 78
     2
 67
     7
 79
     5
170
     0
171
     0
290
     0
174
     0
 93
        1
 44
0.0
173
     0
291
     1
 45
0.0
1001
ACAD
1000
AcDbSavedByObjectVersion
1070
     0
  0
XRECORD
  5
47A
102
{ACAD_REACTORS
330
471
102
}
330
471
100
AcDbXrecord
 90
        0
  0
XRECORD
  5
490
102
{ACAD_REACTORS
330
471
102
}
330
471
100
AcDbXrecord
1000
DSTYLE
1002
{
1070
    41
 40
0.06
1070
   340
340
11
1070
   140
 40
0.0821180555555555
1002
}
  0
XRECORD
  5
47B
102
{ACAD_REACTORS
330
471
102
}
330
471
100
AcDbXrecord
  1
{6B472D3F-661E-432A-AD1E-0FEED7455BE4}
  0
XRECORD
  5
474
102
{ACAD_REACTORS
330
471
102
}
330
471
100
AcDbXrecord
  1

  0
XRECORD
  5
479
102
{ACAD_REACTORS
330
471
102
}
330
471
100
AcDbXrecord
 90
        1
  0
XRECORD
  5
476
102
{ACAD_REACTORS
330
471
102
}
330
471
100
AcDbXrecord
340
1A
  0
XRECORD
  5
478
102
{ACAD_REACTORS
330
471
102
}
330
471
100
AcDbXrecord
 90
    10781
  0
XRECORD
  5
477
102
{ACAD_REACTORS
330
471
102
}
330
471
100
AcDbXrecord
340
19
  0
XRECORD
  5
47D
102
{ACAD_REACTORS
330
471
102
}
330
471
100
AcDbXrecord
 40
0.0
  0
XRECORD
  5
480
102
{ACAD_REACTORS
330
471
102
}
330
471
100
AcDbXrecord
340
0
  0
XRECORD
  5
486
102
{ACAD_REACTORS
330
471
102
}
330
471
100
AcDbXrecord
 10
0.0
 20
0.0
 30
0.0
  0
XRECORD
  5
482
102
{ACAD_REACTORS
330
471
102
}
330
471
100
AcDbXrecord
 10
0.0
 20
0.0
 30
0.0
  0
XRECORD
  5
485
102
{ACAD_REACTORS
330
471
102
}
330
471
100
AcDbXrecord
 10
0.0
 20
0.0
 30
0.0
  0
XRECORD
  5
483
102
{ACAD_REACTORS
330
471
102
}
330
471
100
AcDbXrecord
 10
0.0
 20
0.0
 30
0.0
  0
XRECORD
  5
484
102
{ACAD_REACTORS
330
471
102
}
330
471
100
AcDbXrecord
 10
0.0
 20
0.0
 30
0.0
  0
XRECORD
  5
481
102
{ACAD_REACTORS
330
471
102
}
330
471
100
AcDbXrecord
 10
0.0
 20
0.0
 30
0.0
  0
XRECORD
  5
47E
102
{ACAD_REACTORS
330
471
102
}
330
471
100
AcDbXrecord
340
0
  0
XRECORD
  5
47F
102
{ACAD_REACTORS
330
471
102
}
330
471
100
AcDbXrecord
 70
     0
  0
XRECORD
  5
475
102
{ACAD_REACTORS
330
471
102
}
330
471
100
AcDbXrecord
  1

  0
XRECORD
  5
472
102
{ACAD_REACTORS
330
471
102
}
330
471
100
AcDbXrecord
 90
        1
  0
XRECORD
  5
473
102
{ACAD_REACTORS
330
471
102
}
330
471
100
AcDbXrecord
 90
       70
  0
XRECORD
  5
489
102
{ACAD_REACTORS
330
471
102
}
330
471
100
AcDbXrecord
340
0
  0
XRECORD
  5
48F
102
{ACAD_REACTORS
330
471
102
}
330
471
100
AcDbXrecord
 10
0.0
 20
0.0
 30
0.0
  0
XRECORD
  5
48B
102
{ACAD_REACTORS
330
471
102
}
330
471
100
AcDbXrecord
 10
0.0
 20
0.0
 30
0.0
  0
XRECORD
  5
48E
102
{ACAD_REACTORS
330
471
102
}
330
471
100
AcDbXrecord
 10
0.0
 20
0.0
 30
0.0
  0
XRECORD
  5
48C
102
{ACAD_REACTORS
330
471
102
}
330
471
100
AcDbXrecord
 10
0.0
 20
0.0
 30
0.0
  0
XRECORD
  5
48D
102
{ACAD_REACTORS
330
471
102
}
330
471
100
AcDbXrecord
 10
0.0
 20
0.0
 30
0.0
  0
XRECORD
  5
48A
102
{ACAD_REACTORS
330
471
102
}
330
471
100
AcDbXrecord
 10
0.0
 20
0.0
 30
0.0
  0
XRECORD
  5
487
102
{ACAD_REACTORS
330
471
102
}
330
471
100
AcDbXrecord
340
0
  0
XRECORD
  5
488
102
{ACAD_REACTORS
330
471
102
}
330
471
100
AcDbXrecord
 70
     0
  0
XRECORD
  5
47C
102
{ACAD_REACTORS
330
471
102
}
330
471
100
AcDbXrecord
  1
{FAEB1C32-E019-11D5-929B-00C0DF256EC4}
  0
DICTIONARYVAR
  5
492
102
{ACAD_REACTORS
330
491
102
}
330
491
100
DictionaryVariables
280
     0
  1
1:1
  0
ENDSEC
  0
EOF
